  0
SECTION
  2
HEADER
  9
$EXTMAX
 10
1.2182922
 20
274.528
 30
0
  9
$EXTMIN
 10
-177.2301
 20
-1.0560455
 30
0
  9
$LIMMAX
 10
1.2182922
 20
274.528
  9
$LIMMIN
 10
-177.2301
 20
-1.0560455
  9
$PLIMMAX
 10
1.2182922
 20
274.528
  9
$PLIMMIN
 10
-177.2301
 20
-1.0560455
  9
$PEXTMAX
 10
1.2182922
 20
274.528
 30
0
  9
$PEXTMIN
 10
-177.2301
 20
-1.0560455
 30
0
  9
$TEXTSIZE
 40
3.2
  9
$DIMSHO
 70
     0
  9
$DIMASZ
 40
1.0
  9
$DIMTAD
 70
     1
  9
$DIMTIH
 70
     0
  9
$DIMTOH
 70
     0
  9
$DIMEXE
 40
2.54
  9
$DIMEXO
 40
2.54
  9
$DIMTVP
 40
1.0
  9
$DIMSAH
 70
     1
  9
$DIMDLE
 40
0.0
  9
$DIMTXT
 40
3.2
  9
$DIMGAP
 40
1.6
  0
ENDSEC
  0
SECTION
  2
TABLES
  0
TABLE
  2
LTYPE
 70
     39
  0
LTYPE
  2
CONTINUOUS
 70
    64
  3
Solid line
 72
    65
 73
     0
 40
0.0
  0
LTYPE
  2
ACAD_ISO02W100
 70
     0
  3
ISO dash __ __ __ __ __ __ __ __ __ __ __ __ __
 72
    65
 73
     2
 40
15.0
 49
12.0
 49
-3.0
  0
LTYPE
  2
ACAD_ISO03W100
 70
     0
  3
ISO dash space __    __    __    __    __    __
 72
    65
 73
     2
 40
30.0
 49
12.0
 49
-18.0
  0
LTYPE
  2
ACAD_ISO04W100
 70
     0
  3
ISO long-dash dot ____ . ____ . ____ . ____ . _
 72
    65
 73
     4
 40
30.0
 49
24.0
 49
-3.0
 49
0.0
 49
-3.0
  0
LTYPE
  2
ACAD_ISO05W100
 70
     0
  3
ISO long-dash double-dot ____ .. ____ .. ____ .
 72
    65
 73
     6
 40
33.0
 49
24.0
 49
-3.0
 49
0.0
 49
-3.0
 49
0.0
 49
-3.0
  0
LTYPE
  2
ACAD_ISO06W100
 70
     0
  3
ISO long-dash triple-dot ____ ... ____ ... ____
 72
    65
 73
     8
 40
36.0
 49
24.0
 49
-3.0
 49
0.0
 49
-3.0
 49
0.0
 49
-3.0
 49
0.0
 49
-3.0
  0
LTYPE
  2
ACAD_ISO07W100
 70
     0
  3
ISO dot . . . . . . . . . . . . . . . . . . . .
 72
    65
 73
     2
 40
3.0
 49
0.0
 49
-3.0
  0
LTYPE
  2
ACAD_ISO08W100
 70
     0
  3
ISO long-dash short-dash ____ __ ____ __ ____ _
 72
    65
 73
     4
 40
36.0
 49
24.0
 49
-3.0
 49
6.0
 49
-3.0
  0
LTYPE
  2
ACAD_ISO09W100
 70
     0
  3
ISO long-dash double-short-dash ____ __ __ ____
 72
    65
 73
     6
 40
45.0
 49
24.0
 49
-3.0
 49
6.0
 49
-3.0
 49
6.0
 49
-3.0
  0
LTYPE
  2
ACAD_ISO10W100
 70
     0
  3
ISO dash dot __ . __ . __ . __ . __ . __ . __ .
 72
    65
 73
     4
 40
18.0
 49
12.0
 49
-3.0
 49
0.0
 49
-3.0
  0
LTYPE
  2
ACAD_ISO11W100
 70
     0
  3
ISO double-dash dot __ __ . __ __ . __ __ . __ 
 72
    65
 73
     6
 40
33.0
 49
12.0
 49
-3.0
 49
12.0
 49
-3.0
 49
0.0
 49
-3.0
  0
LTYPE
  2
ACAD_ISO12W100
 70
     0
  3
ISO dash double-dot __ . . __ . . __ . . __ . .
 72
    65
 73
     6
 40
21.0
 49
12.0
 49
-3.0
 49
0.0
 49
-3.0
 49
0.0
 49
-3.0
  0
LTYPE
  2
ACAD_ISO13W100
 70
     0
  3
ISO double-dash double-dot __ __ . . __ __ . . 
 72
    65
 73
     8
 40
36.0
 49
12.0
 49
-3.0
 49
12.0
 49
-3.0
 49
0.0
 49
-3.0
 49
0.0
 49
-3.0
  0
LTYPE
  2
ACAD_ISO14W100
 70
     0
  3
ISO dash triple-dot __ . . . __ . . . __ . . . 
 72
    65
 73
     8
 40
24.0
 49
12.0
 49
-3.0
 49
0.0
 49
-3.0
 49
0.0
 49
-3.0
 49
0.0
 49
-3.0
  0
LTYPE
  2
ACAD_ISO15W100
 70
     0
  3
ISO double-dash triple-dot __ __ . . . __ __ . 
 72
    65
 73
    10
 40
39.0
 49
12.0
 49
-3.0
 49
12.0
 49
-3.0
 49
0.0
 49
-3.0
 49
0.0
 49
-3.0
 49
0.0
 49
-3.0
  0
LTYPE
  2
BORDER
 70
    64
  3
Border __ __ . __ __ . __ __ . __ __ . __ __ .
 72
    65
 73
     6
 40
3.5
 49
1.0
 49
-0.5
 49
1.0
 49
-0.5
 49
0.0
 49
-0.5
  0
LTYPE
  2
BORDER2
 70
    64
  3
Border (.5x) __.__.__.__.__.__.__.__.__.__.__.
 72
    65
 73
     6
 40
1.75
 49
0.5
 49
-0.25
 49
0.5
 49
-0.25
 49
0.0
 49
-0.25
  0
LTYPE
  2
BORDERX2
 70
    64
  3
Border (2x) ____  ____  .  ____  ____  .  ___
 72
    65
 73
     6
 40
7.0
 49
2.0
 49
-1.0
 49
2.0
 49
-1.0
 49
0.0
 49
-1.0
  0
LTYPE
  2
CENTER
 70
    64
  3
Center ____ _ ____ _ ____ _ ____ _ ____ _ ____
 72
    65
 73
     4
 40
12.0
 49
7.5
 49
-1.5
 49
1.5
 49
-1.5
  0
LTYPE
  2
CENTER2
 70
    64
  3
Center (.5x) ___ _ ___ _ ___ _ ___ _ ___ _ ___
 72
    65
 73
     4
 40
6.0
 49
3.75
 49
-0.75
 49
0.75
 49
-0.75
  0
LTYPE
  2
CENTERX2
 70
    64
  3
Center (2x) ________  __  ________  __  _____
 72
    65
 73
     4
 40
24.0
 49
15.0
 49
-3.0
 49
3.0
 49
-3.0
  0
LTYPE
  2
DASHDOT
 70
    64
  3
Dash dot __ . __ . __ . __ . __ . __ . __ . __
 72
    65
 73
     4
 40
6.0
 49
3.0
 49
-1.5
 49
0.0
 49
-1.5
  0
LTYPE
  2
DASHDOT2
 70
    64
  3
Dash dot (.5x) _._._._._._._._._._._._._._._.
 72
    65
 73
     4
 40
3.0
 49
1.5
 49
-0.75
 49
0.0
 49
-0.75
  0
LTYPE
  2
DASHDOTX2
 70
    64
  3
Dash dot (2x) ____  .  ____  .  ____  .  ___
 72
    65
 73
     4
 40
12.0
 49
6.0
 49
-3.0
 49
0.0
 49
-3.0
  0
LTYPE
  2
DASHED
 70
    64
  3
Dashed __ __ __ __ __ __ __ __ __ __ __ __ __ _
 72
    65
 73
     2
 40
4.5
 49
3.0
 49
-1.5
  0
LTYPE
  2
DASHED2
 70
    64
  3
Dashed (.5x) _ _ _ _ _ _ _ _ _ _ _ _ _ _ _ _ _
 72
    65
 73
     2
 40
2.25
 49
1.5
 49
-0.75
  0
LTYPE
  2
DASHEDX2
 70
    64
  3
Dashed (2x) ____  ____  ____  ____  ____  ___
 72
    65
 73
     2
 40
9.0
 49
6.0
 49
-3.0
  0
LTYPE
  2
DIVIDE
 70
    64
  3
Divide ____ . . ____ . . ____ . . ____ . . ____
 72
    65
 73
     6
 40
7.5
 49
3.0
 49
-1.5
 49
0.0
 49
-1.5
 49
0.0
 49
-1.5
  0
LTYPE
  2
DIVIDE2
 70
    64
  3
Divide (.5x) __..__..__..__..__..__..__..__.._
 72
    65
 73
     6
 40
3.75
 49
1.5
 49
-0.75
 49
0.0
 49
-0.75
 49
0.0
 49
-0.75
  0
LTYPE
  2
DIVIDEX2
 70
    64
  3
Divide (2x) ________  .  .  ________  .  .  _
 72
    65
 73
     6
 40
15.0
 49
6.0
 49
-3.0
 49
0.0
 49
-3.0
 49
0.0
 49
-3.0
  0
LTYPE
  2
DOT
 70
    64
  3
Dot . . . . . . . . . . . . . . . . . . . . . .
 72
    65
 73
     2
 40
1.5
 49
0.0
 49
-1.5
  0
LTYPE
  2
DOT2
 70
    64
  3
Dot (.5x) .....................................
 72
    65
 73
     2
 40
0.75
 49
0.0
 49
-0.75
  0
LTYPE
  2
DOTX2
 70
    64
  3
Dot (2x) .  .  .  .  .  .  .  .  .  .  .  .  . 
 72
    65
 73
     2
 40
3.0
 49
0.0
 49
-3.0
  0
LTYPE
  2
HIDDEN
 70
    64
  3
Hidden __ __ __ __ __ __ __ __ __ __ __ __ __ _
 72
    65
 73
     2
 40
4.5
 49
3.0
 49
-1.5
  0
LTYPE
  2
HIDDEN2
 70
    64
  3
Hidden (.5x) _ _ _ _ _ _ _ _ _ _ _ _ _ _ _ _ _
 72
    65
 73
     2
 40
2.25
 49
1.5
 49
-0.75
  0
LTYPE
  2
HIDDENX2
 70
    64
  3
Hidden (2x) ____ ____ ____ ____ ____ ____ ____
 72
    65
 73
     2
 40
9.0
 49
6.0
 49
-3.0
  0
LTYPE
  2
PHANTOM
 70
    64
  3
Phantom ______  __  __  ______  __  __  ______
 72
    65
 73
     6
 40
15.0
 49
7.5
 49
-1.5
 49
1.5
 49
-1.5
 49
1.5
 49
-1.5
  0
LTYPE
  2
PHANTOM2
 70
    64
  3
Phantom (.5x) ___ _ _ ___ _ _ ___ _ _ ___ _ _
 72
    65
 73
     6
 40
7.5
 49
3.75
 49
-0.75
 49
0.75
 49
-0.75
 49
0.75
 49
-0.75
  0
LTYPE
  2
PHANTOMX2
 70
    64
  3
Phantom (2x) ____________    ____    ____   _
 72
    65
 73
     6
 40
30.0
 49
15.0
 49
-3.0
 49
3.0
 49
-3.0
 49
3.0
 49
-3.0
  0
ENDTAB
  0
TABLE
  2
LAYER
 70
     1
  0
LAYER
  2
0
 70
     0
 62
     7
  6
CONTINUOUS
  0
ENDTAB
  0
TABLE
  2
STYLE
 70
     1
  0
STYLE
  2
STANDARD
 70
     0
 40
0.0
 41
1.0
 50
0.0
 71
     0
 42
0.2
  3
txt
  4
BIGFONT
  0
ENDTAB
  0
TABLE
  2
DIMSTYLE
 70
     0
  0
ENDTAB
  0
ENDSEC
  0
SECTION
  2
BLOCKS
  0
BLOCK
  8
0
  2
KOZU0001
 70
    64
 10
0
 20
0
  0
LINE
  8
0
  6
CONTINUOUS
 62
     7
 10
0
 20
0
 11
14.828544
 21
22.785915
  0
LINE
  8
0
  6
CONTINUOUS
 62
     7
 10
0
 20
0
 11
0.79819181
 21
3.0598839
  0
LINE
  8
0
  6
CONTINUOUS
 62
     7
 10
0
 20
0
 11
2.4744838
 21
1.968992
  0
TEXT
  8
0
  6
CONTINUOUS
 62
     7
 10
18.707493
 20
23.58592
 40
3.2
 41
0.85127004
  1
３－Ｍ６
  0
LINE
  8
0
  6
CONTINUOUS
 62
     7
 10
0
 20
0
 11
14.828544
 21
22.785915
  0
LINE
  8
0
  6
CONTINUOUS
 62
     7
 10
14.828542
 20
22.78592
 11
32.421499
 21
22.78592
  0
ENDBLK
  8
0
  0
ENDSEC
  0
SECTION
  2
ENTITIES
  0
POINT
  8
0
  6
CONTINUOUS
 62
     7
 10
-385.79999
 20
273
  0
POINT
  8
0
  6
CONTINUOUS
 62
     7
 10
-385.79999
 20
0
  0
POINT
  8
0
  6
CONTINUOUS
 62
     7
 10
0
 20
0
  0
POINT
  8
0
  6
CONTINUOUS
 62
     7
 10
0
 20
273
  0
LINE
  8
0
  6
CONTINUOUS
 62
     7
 10
-356.21234
 20
195.36708
 11
-356.21234
 21
187.36708
  0
LINE
  8
0
  6
CONTINUOUS
 62
     7
 10
-356.21234
 20
195.36708
 11
-371.21234
 21
195.36708
  0
LINE
  8
0
  6
CONTINUOUS
 62
     7
 10
-356.21234
 20
170.36708
 11
-371.21234
 21
170.36708
  0
LINE
  8
0
  6
CONTINUOUS
 62
     7
 10
-371.21234
 20
195.36708
 11
-371.21234
 21
170.36708
  0
LINE
  8
0
  6
CENTER
 62
     7
 10
-363.30435
 20
182.86708
 11
-373.69644
 21
182.86708
  0
LINE
  8
0
  6
CONTINUOUS
 62
     7
 10
-360.21234
 20
190.36708
 11
-360.21234
 21
187.36708
  0
LINE
  8
0
  6
CONTINUOUS
 62
     7
 10
-365.21234
 20
190.36708
 11
-365.21234
 21
175.36708
  0
LINE
  8
0
  6
CONTINUOUS
 62
     7
 10
-360.21234
 20
190.36708
 11
-365.21234
 21
190.36708
  0
LINE
  8
0
  6
CONTINUOUS
 62
     7
 10
-360.21234
 20
175.36708
 11
-365.21234
 21
175.36708
  0
LINE
  8
0
  6
CONTINUOUS
 62
     7
 10
-356.21234
 20
178.36708
 11
-360.21234
 21
178.36708
  0
LINE
  8
0
  6
CONTINUOUS
 62
     7
 10
-356.21234
 20
187.36708
 11
-360.21234
 21
187.36708
  0
LINE
  8
0
  6
CONTINUOUS
 62
     7
 10
-356.21234
 20
178.36708
 11
-356.21234
 21
170.36708
  0
LINE
  8
0
  6
CONTINUOUS
 62
     7
 10
-360.21234
 20
178.36708
 11
-360.21234
 21
175.36708
  0
LINE
  8
0
  6
DASHED
 62
     7
 10
-365.21234
 20
185.86708
 11
-371.21234
 21
185.86708
  0
LINE
  8
0
  6
DASHED
 62
     7
 10
-365.21234
 20
179.86708
 11
-371.21234
 21
179.86708
  0
LINE
  8
0
  6
DASHED
 62
     7
 10
-365.21234
 20
185.36708
 11
-371.21234
 21
185.36708
  0
LINE
  8
0
  6
DASHED
 62
     7
 10
-365.21234
 20
180.36708
 11
-371.21234
 21
180.36708
  0
LINE
  8
0
  6
CONTINUOUS
 62
     7
 10
-28.721792
 20
195.36708
 11
-328.7218
 21
195.36708
  0
LINE
  8
0
  6
CONTINUOUS
 62
     7
 10
-28.721792
 20
170.36708
 11
-328.7218
 21
170.36708
  0
LINE
  8
0
  6
CONTINUOUS
 62
     7
 10
-28.721792
 20
195.36708
 11
-28.721792
 21
170.36708
  0
LINE
  8
0
  6
CONTINUOUS
 62
     7
 10
-328.7218
 20
195.36708
 11
-328.7218
 21
170.36708
  0
LINE
  8
0
  6
CENTER
 62
     7
 10
-22.082201
 20
182.86708
 11
-335.19034
 21
182.86708
  0
LINE
  8
0
  6
CONTINUOUS
 62
     7
 10
-28.721792
 20
187.36708
 11
-328.7218
 21
187.36708
  0
LINE
  8
0
  6
CONTINUOUS
 62
     7
 10
-28.721792
 20
178.36708
 11
-328.7218
 21
178.36708
  0
LINE
  8
0
  6
DASHED
 62
     7
 10
-28.721792
 20
190.36708
 11
-328.7218
 21
190.36708
  0
LINE
  8
0
  6
DASHED
 62
     7
 10
-28.721792
 20
175.36708
 11
-328.7218
 21
175.36708
  0
LINE
  8
0
  6
CENTER
 62
     7
 10
-148.72179
 20
188.85838
 11
-148.72179
 21
176.7581
  0
LINE
  8
0
  6
CENTER
 62
     7
 10
-208.72179
 20
188.85838
 11
-208.72179
 21
176.7581
  0
LINE
  8
0
  6
CENTER
 62
     7
 10
-178.72179
 20
188.85838
 11
-178.72179
 21
176.7581
  0
LINE
  8
0
  6
CONTINUOUS
 62
     7
 10
-28.721792
 20
92.867081
 11
-328.7218
 21
92.867081
  0
LINE
  8
0
  6
CONTINUOUS
 62
     7
 10
-28.721792
 20
107.86708
 11
-328.7218
 21
107.86708
  0
LINE
  8
0
  6
DASHED
 62
     7
 10
-28.721792
 20
98.867081
 11
-328.7218
 21
98.867081
  0
LINE
  8
0
  6
DASHED
 62
     7
 10
-28.721792
 20
103.86708
 11
-328.7218
 21
103.86708
  0
LINE
  8
0
  6
CONTINUOUS
 62
     7
 10
-28.721792
 20
107.86708
 11
-28.721792
 21
92.867081
  0
LINE
  8
0
  6
CONTINUOUS
 62
     7
 10
-328.7218
 20
107.86708
 11
-328.7218
 21
92.867081
  0
LINE
  8
0
  6
DASHED
 62
     7
 10
-205.72179
 20
98.867081
 11
-205.72179
 21
92.867081
  0
LINE
  8
0
  6
DASHED
 62
     7
 10
-211.72179
 20
98.867081
 11
-211.72179
 21
92.867081
  0
LINE
  8
0
  6
DASHED
 62
     7
 10
-211.22179
 20
98.867081
 11
-211.22179
 21
92.867081
  0
LINE
  8
0
  6
DASHED
 62
     7
 10
-206.22179
 20
98.867081
 11
-206.22179
 21
92.867081
  0
LINE
  8
0
  6
CENTER
 62
     7
 10
-208.72179
 20
101.86708
 11
-208.72179
 21
89.867081
  0
LINE
  8
0
  6
DASHED
 62
     7
 10
-145.72179
 20
98.867081
 11
-145.72179
 21
92.867081
  0
LINE
  8
0
  6
DASHED
 62
     7
 10
-146.22179
 20
98.867081
 11
-146.22179
 21
92.867081
  0
LINE
  8
0
  6
CENTER
 62
     7
 10
-148.72179
 20
101.86708
 11
-148.72179
 21
89.867081
  0
LINE
  8
0
  6
DASHED
 62
     7
 10
-151.22179
 20
98.867081
 11
-151.22179
 21
92.867081
  0
LINE
  8
0
  6
DASHED
 62
     7
 10
-151.72179
 20
98.867081
 11
-151.72179
 21
92.867081
  0
LINE
  8
0
  6
DASHED
 62
     7
 10
-175.72179
 20
98.867081
 11
-175.72179
 21
92.867081
  0
LINE
  8
0
  6
DASHED
 62
     7
 10
-176.22179
 20
98.867081
 11
-176.22179
 21
92.867081
  0
LINE
  8
0
  6
CENTER
 62
     7
 10
-178.72179
 20
101.86708
 11
-178.72179
 21
89.867081
  0
LINE
  8
0
  6
DASHED
 62
     7
 10
-181.22179
 20
98.867081
 11
-181.22179
 21
92.867081
  0
LINE
  8
0
  6
DASHED
 62
     7
 10
-181.72179
 20
98.867081
 11
-181.72179
 21
92.867081
  0
LINE
  8
0
  6
CONTINUOUS
 62
     7
 10
0
 20
273
 11
0
 21
0
  0
LINE
  8
0
  6
CONTINUOUS
 62
     7
 10
-385.79999
 20
0
 11
0
 21
0
  0
LINE
  8
0
  6
CONTINUOUS
 62
     7
 10
-385.79999
 20
273
 11
0
 21
273
  0
LINE
  8
0
  6
CONTINUOUS
 62
     7
 10
-385.79999
 20
273
 11
-385.79999
 21
0
  0
LINE
  8
0
  6
CONTINUOUS
 62
     7
 10
-68.5
 20
38.5
 11
-68.5
 21
0
  0
LINE
  8
0
  6
CONTINUOUS
 62
     7
 10
-68.5
 20
12.5
 11
0
 21
12.5
  0
LINE
  8
0
  6
CONTINUOUS
 62
     7
 10
-68.5
 20
25
 11
0
 21
25
  0
LINE
  8
0
  6
CONTINUOUS
 62
     7
 10
-68.5
 20
38.5
 11
0
 21
38.5
  0
LINE
  8
0
  6
CONTINUOUS
 62
     7
 10
-385.60001
 20
0.2
 11
-0.2
 21
0.2
  0
LINE
  8
0
  6
CONTINUOUS
 62
     7
 10
-385.60001
 20
272.79999
 11
-385.60001
 21
0.2
  0
LINE
  8
0
  6
CONTINUOUS
 62
     7
 10
-385.60001
 20
272.79999
 11
-0.2
 21
272.79999
  0
LINE
  8
0
  6
CONTINUOUS
 62
     7
 10
-0.2
 20
272.79999
 11
-0.2
 21
0.2
  0
CIRCLE
  8
0
  6
CONTINUOUS
 62
     7
 10
-148.72179
 20
182.86708
 40
3
  0
CIRCLE
  8
0
  6
CONTINUOUS
 62
     7
 10
-148.72179
 20
182.86708
 40
2.5
  0
CIRCLE
  8
0
  6
CONTINUOUS
 62
     7
 10
-208.72179
 20
182.86708
 40
2.5
  0
CIRCLE
  8
0
  6
CONTINUOUS
 62
     7
 10
-208.72179
 20
182.86708
 40
3
  0
CIRCLE
  8
0
  6
CONTINUOUS
 62
     7
 10
-178.72179
 20
182.86708
 40
2.5
  0
CIRCLE
  8
0
  6
CONTINUOUS
 62
     7
 10
-178.72179
 20
182.86708
 40
3
  0
TEXT
  8
0
  6
CONTINUOUS
 62
     7
 10
-44.87132
 20
34.03166
 40
3.2
 41
0.84741093
  1
自在チャック
  0
TEXT
  8
0
  6
CONTINUOUS
 62
     7
 10
-66.788187
 20
27.54413
 40
4.8000002
 41
0.84326956
  1
スライドベース（標準タイプ）
  0
TEXT
  8
0
  6
CONTINUOUS
 62
     7
 10
-54.24282
 20
16.292709
 40
4.8000002
 41
0.84556534
  1
ＦＣＫ－０００４
  0
TEXT
  8
0
  6
CONTINUOUS
 62
     7
 10
-49.071891
 20
3.8048687
 40
4.8000002
 41
0.84741096
  1
３７０７２９
  0
INSERT
  8
0
  6
CONTINUOUS
 62
     7
  2
KOZU0001
 10
-207.08545
 20
185.38151
  0
ENDSEC
  0
EOF
