  0
SECTION
  2
HEADER
  9
$ACADVER
  1
AC1015
  9
$ACADMAINTVER
 70
     6
  9
$DWGCODEPAGE
  3
DOS932
  9
$INSBASE
 10
0.0
 20
0.0
 30
0.0
  9
$EXTMIN
 10
0.0
 20
0.0
 30
0.0
  9
$EXTMAX
 10
210.0
 20
297.0
 30
0.0
  9
$LIMMIN
 10
0.0
 20
0.0
  9
$LIMMAX
 10
0.0
 20
0.0
  9
$ORTHOMODE
 70
     0
  9
$REGENMODE
 70
     1
  9
$FILLMODE
 70
     1
  9
$QTEXTMODE
 70
     0
  9
$MIRRTEXT
 70
     1
  9
$LTSCALE
 40
1.0
  9
$ATTMODE
 70
     1
  9
$TEXTSIZE
 40
3.5
  9
$TRACEWID
 40
1.0
  9
$TEXTSTYLE
  7
Standard
  9
$CLAYER
  8
0
  9
$CELTYPE
  6
ByLayer
  9
$CECOLOR
 62
   256
  9
$CELTSCALE
 40
1.0
  9
$DISPSILH
 70
     0
  9
$DIMSCALE
 40
1.0
  9
$DIMASZ
 40
3.0
  9
$DIMEXO
 40
1.0
  9
$DIMDLI
 40
3.75
  9
$DIMRND
 40
0.0
  9
$DIMDLE
 40
0.0
  9
$DIMEXE
 40
1.0
  9
$DIMTP
 40
0.0
  9
$DIMTM
 40
0.0
  9
$DIMTXT
 40
3.2000000477
  9
$DIMCEN
 40
2.5
  9
$DIMTSZ
 40
0.0
  9
$DIMTOL
 70
     0
  9
$DIMLIM
 70
     0
  9
$DIMTIH
 70
     1
  9
$DIMTOH
 70
     1
  9
$DIMSE1
 70
     0
  9
$DIMSE2
 70
     0
  9
$DIMTAD
 70
     1
  9
$DIMZIN
 70
     1
  9
$DIMBLK
  1

  9
$DIMASO
 70
     1
  9
$DIMSHO
 70
     1
  9
$DIMPOST
  1

  9
$DIMAPOST
  1

  9
$DIMALT
 70
     0
  9
$DIMALTD
 70
     3
  9
$DIMALTF
 40
0.0393700787
  9
$DIMLFAC
 40
1.0
  9
$DIMTOFL
 70
     1
  9
$DIMTVP
 40
0.0
  9
$DIMTIX
 70
     0
  9
$DIMSOXD
 70
     0
  9
$DIMSAH
 70
     0
  9
$DIMBLK1
  1

  9
$DIMBLK2
  1

  9
$DIMSTYLE
  2
ISO-25
  9
$DIMCLRD
 70
     0
  9
$DIMCLRE
 70
     0
  9
$DIMCLRT
 70
     0
  9
$DIMTFAC
 40
1.0
  9
$DIMGAP
 40
1.524
  9
$DIMJUST
 70
     0
  9
$DIMSD1
 70
     0
  9
$DIMSD2
 70
     0
  9
$DIMTOLJ
 70
     0
  9
$DIMTZIN
 70
     1
  9
$DIMALTZ
 70
     0
  9
$DIMALTTZ
 70
     0
  9
$DIMUPT
 70
     0
  9
$DIMDEC
 70
     2
  9
$DIMTDEC
 70
     2
  9
$DIMALTU
 70
     2
  9
$DIMALTTD
 70
     3
  9
$DIMTXSTY
  7
Standard
  9
$DIMAUNIT
 70
     0
  9
$DIMADEC
 70
     0
  9
$DIMALTRND
 40
0.0
  9
$DIMAZIN
 70
     0
  9
$DIMDSEP
 70
    44
  9
$DIMATFIT
 70
     3
  9
$DIMFRAC
 70
     0
  9
$DIMLDRBLK
  1

  9
$DIMLUNIT
 70
     2
  9
$DIMLWD
 70
    -2
  9
$DIMLWE
 70
    -2
  9
$DIMTMOVE
 70
     0
  9
$LUNITS
 70
     2
  9
$LUPREC
 70
     4
  9
$SKETCHINC
 40
1.0
  9
$FILLETRAD
 40
10.0
  9
$AUNITS
 70
     0
  9
$AUPREC
 70
     0
  9
$MENU
  1
.
  9
$ELEVATION
 40
0.0
  9
$PELEVATION
 40
0.0
  9
$THICKNESS
 40
0.0
  9
$LIMCHECK
 70
     0
  9
$CHAMFERA
 40
10.0
  9
$CHAMFERB
 40
10.0
  9
$CHAMFERC
 40
20.0
  9
$CHAMFERD
 40
0.0
  9
$SKPOLY
 70
     0
  9
$TDCREATE
 40
2454307.47739022
  9
$TDUCREATE
 40
2454307.10239022
  9
$TDUPDATE
 40
2454307.477390232
  9
$TDUUPDATE
 40
2454307.102390232
  9
$TDINDWG
 40
0.0000000116
  9
$TDUSRTIMER
 40
0.0000000116
  9
$USRTIMER
 70
     1
  9
$ANGBASE
 50
0.0
  9
$ANGDIR
 70
     0
  9
$PDMODE
 70
     0
  9
$PDSIZE
 40
-1.0
  9
$PLINEWID
 40
0.0
  9
$SPLFRAME
 70
     0
  9
$SPLINETYPE
 70
     6
  9
$SPLINESEGS
 70
     8
  9
$HANDSEED
  5
193
  9
$SURFTAB1
 70
     6
  9
$SURFTAB2
 70
     6
  9
$SURFTYPE
 70
     6
  9
$SURFU
 70
     6
  9
$SURFV
 70
     6
  9
$UCSBASE
  2

  9
$UCSNAME
  2

  9
$UCSORG
 10
0.0
 20
0.0
 30
0.0
  9
$UCSXDIR
 10
1.0
 20
0.0
 30
0.0
  9
$UCSYDIR
 10
0.0
 20
1.0
 30
0.0
  9
$UCSORTHOREF
  2

  9
$UCSORTHOVIEW
 70
     0
  9
$UCSORGTOP
 10
0.0
 20
0.0
 30
0.0
  9
$UCSORGBOTTOM
 10
0.0
 20
0.0
 30
0.0
  9
$UCSORGLEFT
 10
0.0
 20
0.0
 30
0.0
  9
$UCSORGRIGHT
 10
0.0
 20
0.0
 30
0.0
  9
$UCSORGFRONT
 10
0.0
 20
0.0
 30
0.0
  9
$UCSORGBACK
 10
0.0
 20
0.0
 30
0.0
  9
$PUCSBASE
  2

  9
$PUCSNAME
  2

  9
$PUCSORG
 10
0.0
 20
0.0
 30
0.0
  9
$PUCSXDIR
 10
1.0
 20
0.0
 30
0.0
  9
$PUCSYDIR
 10
0.0
 20
1.0
 30
0.0
  9
$PUCSORTHOREF
  2

  9
$PUCSORTHOVIEW
 70
     0
  9
$PUCSORGTOP
 10
0.0
 20
0.0
 30
0.0
  9
$PUCSORGBOTTOM
 10
0.0
 20
0.0
 30
0.0
  9
$PUCSORGLEFT
 10
0.0
 20
0.0
 30
0.0
  9
$PUCSORGRIGHT
 10
0.0
 20
0.0
 30
0.0
  9
$PUCSORGFRONT
 10
0.0
 20
0.0
 30
0.0
  9
$PUCSORGBACK
 10
0.0
 20
0.0
 30
0.0
  9
$USERI1
 70
     0
  9
$USERI2
 70
     0
  9
$USERI3
 70
     0
  9
$USERI4
 70
     0
  9
$USERI5
 70
     0
  9
$USERR1
 40
0.0
  9
$USERR2
 40
0.0
  9
$USERR3
 40
0.0
  9
$USERR4
 40
0.0
  9
$USERR5
 40
0.0
  9
$WORLDVIEW
 70
     1
  9
$SHADEDGE
 70
     3
  9
$SHADEDIF
 70
    70
  9
$TILEMODE
 70
     1
  9
$MAXACTVP
 70
    64
  9
$PINSBASE
 10
0.0
 20
0.0
 30
0.0
  9
$PLIMCHECK
 70
     0
  9
$PEXTMIN
 10
1.0000000000E+20
 20
1.0000000000E+20
 30
1.0000000000E+20
  9
$PEXTMAX
 10
-1.0000000000E+20
 20
-1.0000000000E+20
 30
-1.0000000000E+20
  9
$PLIMMIN
 10
0.0
 20
0.0
  9
$PLIMMAX
 10
420.0
 20
297.0
  9
$UNITMODE
 70
     0
  9
$VISRETAIN
 70
     1
  9
$PLINEGEN
 70
     0
  9
$PSLTSCALE
 70
     1
  9
$TREEDEPTH
 70
  3020
  9
$CMLSTYLE
  2
Standard
  9
$CMLJUST
 70
     0
  9
$CMLSCALE
 40
20.0
  9
$PROXYGRAPHICS
 70
     1
  9
$MEASUREMENT
 70
     1
  9
$CELWEIGHT
370
    -1
  9
$ENDCAPS
280
     0
  9
$JOINSTYLE
280
     0
  9
$LWDISPLAY
290
     1
  9
$INSUNITS
 70
     4
  9
$HYPERLINKBASE
  1

  9
$STYLESHEET
  1

  9
$XEDIT
290
     1
  9
$CEPSNTYPE
380
     0
  9
$PSTYLEMODE
290
     1
  9
$FINGERPRINTGUID
  2
{F3FFB0EB-C01F-4E7D-9F6D-8D692528C50A}
  9
$VERSIONGUID
  2
{FAEB1C32-E019-11D5-929B-00C0DF256EC4}
  9
$EXTNAMES
290
     1
  9
$PSVPSCALE
 40
0.0
  9
$OLESTARTUP
290
     0
  0
ENDSEC
  0
SECTION
  2
CLASSES
  0
CLASS
  1
ACDBDICTIONARYWDFLT
  2
AcDbDictionaryWithDefault
  3
ObjectDBX Classes
 90
        0
280
     0
281
     0
  0
CLASS
  1
ACDBPLACEHOLDER
  2
AcDbPlaceHolder
  3
ObjectDBX Classes
 90
        0
280
     0
281
     0
  0
CLASS
  1
LAYOUT
  2
AcDbLayout
  3
ObjectDBX Classes
 90
        0
280
     0
281
     0
  0
ENDSEC
  0
SECTION
  2
TABLES
  0
TABLE
  2
VPORT
  5
8
330
0
100
AcDbSymbolTable
 70
     1
  0
VPORT
  5
29
330
8
100
AcDbSymbolTableRecord
100
AcDbViewportTableRecord
  2
*Active
 70
     0
 10
0.0
 20
0.0
 11
1.0
 21
1.0
 12
105.0
 22
148.5
 13
0.0
 23
0.0
 14
10.0
 24
10.0
 15
10.0
 25
10.0
 16
0.0
 26
0.0
 36
1.0
 17
0.0
 27
0.0
 37
0.0
 40
297.0
 41
1.9729729729
 42
50.0
 43
0.0
 44
0.0
 50
0.0
 51
0.0
 71
     0
 72
  2000
 73
     1
 74
     3
 75
     0
 76
     0
 77
     0
 78
     0
281
     0
 65
     1
110
0.0
120
0.0
130
0.0
111
1.0
121
0.0
131
0.0
112
0.0
122
1.0
132
0.0
 79
     0
146
0.0
  0
ENDTAB
  0
TABLE
  2
LTYPE
  5
5
330
0
100
AcDbSymbolTable
 70
     6
  0
LTYPE
  5
14
330
5
100
AcDbSymbolTableRecord
100
AcDbLinetypeTableRecord
  2
ByBlock
 70
     0
  3

 72
    65
 73
     0
 40
0.0
  0
LTYPE
  5
15
330
5
100
AcDbSymbolTableRecord
100
AcDbLinetypeTableRecord
  2
ByLayer
 70
     0
  3

 72
    65
 73
     0
 40
0.0
  0
LTYPE
  5
16
330
5
100
AcDbSymbolTableRecord
100
AcDbLinetypeTableRecord
  2
Continuous
 70
     0
  3
Solid line
 72
    65
 73
     0
 40
0.0
  0
LTYPE
  5
2A
330
5
100
AcDbSymbolTableRecord
100
AcDbLinetypeTableRecord
  2
HIDDEN
 70
     0
  3
Hidden __ __ __ __ __ __ __ __ __ __ __ __ __ __
 72
    65
 73
     2
 40
1.905
 49
1.27
 74
     0
 49
-0.635
 74
     0
  0
LTYPE
  5
2B
330
5
100
AcDbSymbolTableRecord
100
AcDbLinetypeTableRecord
  2
PHANTOM
 70
     0
  3
Phantom ______  __  __  ______  __  __  ______
 72
    65
 73
     6
 40
12.7
 49
6.35
 74
     0
 49
-1.27
 74
     0
 49
1.27
 74
     0
 49
-1.27
 74
     0
 49
1.27
 74
     0
 49
-1.27
 74
     0
  0
LTYPE
  5
2C
330
5
100
AcDbSymbolTableRecord
100
AcDbLinetypeTableRecord
  2
CENTER
 70
     0
  3
Center ____ _ ____ _ ____ _ ____ _ ____ _ ____
 72
    65
 73
     4
 40
10.16
 49
6.35
 74
     0
 49
-1.27
 74
     0
 49
1.27
 74
     0
 49
-1.27
 74
     0
  0
LTYPE
  5
2D
330
5
100
AcDbSymbolTableRecord
100
AcDbLinetypeTableRecord
  2
CENTERX2
 70
     0
  3
Center (2x) ________  __  ________  __  _____
 72
    65
 73
     4
 40
20.32
 49
12.7
 74
     0
 49
-2.54
 74
     0
 49
2.54
 74
     0
 49
-2.54
 74
     0
  0
LTYPE
  5
2E
330
5
100
AcDbSymbolTableRecord
100
AcDbLinetypeTableRecord
  2
DOT2
 70
     0
  3
Dot (.5x) ........................................
 72
    65
 73
     2
 40
0.635
 49
0.0
 74
     0
 49
-0.635
 74
     0
  0
ENDTAB
  0
TABLE
  2
LAYER
  5
2
330
0
100
AcDbSymbolTable
 70
     2
  0
LAYER
  5
10
330
2
100
AcDbSymbolTableRecord
100
AcDbLayerTableRecord
  2
0
 70
     0
 62
     7
  6
Continuous
370
    -3
390
F
  0
LAYER
  5
2F
330
2
100
AcDbSymbolTableRecord
100
AcDbLayerTableRecord
  2
SLD-0
 70
     0
 62
   179
  6
Continuous
370
     0
390
F
  0
ENDTAB
  0
TABLE
  2
STYLE
  5
3
330
0
100
AcDbSymbolTable
 70
     7
  0
STYLE
  5
11
330
3
100
AcDbSymbolTableRecord
100
AcDbTextStyleTableRecord
  2
Standard
 70
     0
 40
0.0
 41
1.0
 50
0.0
 71
     0
 42
2.5
  3
txt
  4
bigfont
  0
STYLE
  5
33
330
3
100
AcDbSymbolTableRecord
100
AcDbTextStyleTableRecord
  2
SLDTEXTSTYLE0
 70
     0
 40
0.0
 41
0.7
 50
0.0
 71
     0
 42
0.2
  3
TXT
  4
bigfont
  0
STYLE
  5
3E
330
3
100
AcDbSymbolTableRecord
100
AcDbTextStyleTableRecord
  2
SLDTEXTSTYLE1
 70
     0
 40
0.0
 41
0.6255251993
 50
0.0
 71
     0
 42
0.2
  3
TXT
  4
bigfont
  0
STYLE
  5
48
330
3
100
AcDbSymbolTableRecord
100
AcDbTextStyleTableRecord
  2
SLDTEXTSTYLE2
 70
     0
 40
0.0
 41
0.62362615
 50
0.0
 71
     0
 42
0.2
  3
TXT
  4
bigfont
  0
STYLE
  5
52
330
3
100
AcDbSymbolTableRecord
100
AcDbTextStyleTableRecord
  2
SLDTEXTSTYLE3
 70
     0
 40
0.0
 41
0.6215272008
 50
0.0
 71
     0
 42
0.2
  3
TXT
  4
bigfont
  0
STYLE
  5
18B
330
3
100
AcDbSymbolTableRecord
100
AcDbTextStyleTableRecord
  2
SLDTEXTSTYLE4
 70
     0
 40
0.0
 41
0.6244080763
 50
0.0
 71
     0
 42
0.2
  3
TXT
  4
bigfont
  0
STYLE
  5
18D
330
3
100
AcDbSymbolTableRecord
100
AcDbTextStyleTableRecord
  2
SLDTEXTSTYLE5
 70
     0
 40
0.0
 41
0.6230481434
 50
0.0
 71
     0
 42
0.2
  3
TXT
  4
bigfont
  0
ENDTAB
  0
TABLE
  2
VIEW
  5
6
330
0
100
AcDbSymbolTable
 70
     0
  0
ENDTAB
  0
TABLE
  2
UCS
  5
7
330
0
100
AcDbSymbolTable
 70
     0
  0
ENDTAB
  0
TABLE
  2
APPID
  5
9
330
0
100
AcDbSymbolTable
 70
     1
  0
APPID
  5
12
330
9
100
AcDbSymbolTableRecord
100
AcDbRegAppTableRecord
  2
ACAD
 70
     0
  0
ENDTAB
  0
TABLE
  2
DIMSTYLE
  5
A
330
0
100
AcDbSymbolTable
 70
     1
100
AcDbDimStyleTable
  0
DIMSTYLE
105
27
330
A
100
AcDbSymbolTableRecord
100
AcDbDimStyleTableRecord
  2
ISO-25
 70
     0
 41
2.5
 42
0.625
 43
3.75
 44
1.25
 73
     0
 74
     0
 77
     1
 78
     8
140
2.5
141
2.5
143
0.0393700787
147
0.625
171
     3
172
     1
271
     2
272
     2
274
     3
278
    44
283
     0
284
     8
340
11
  0
ENDTAB
  0
TABLE
  2
BLOCK_RECORD
  5
1
330
0
100
AcDbSymbolTable
 70
     5
  0
BLOCK_RECORD
  5
1F
330
1
100
AcDbSymbolTableRecord
100
AcDbBlockTableRecord
  2
*Model_Space
340
22
  0
BLOCK_RECORD
  5
1B
330
1
100
AcDbSymbolTableRecord
100
AcDbBlockTableRecord
  2
*Paper_Space
340
1E
  0
BLOCK_RECORD
  5
23
330
1
100
AcDbSymbolTableRecord
100
AcDbBlockTableRecord
  2
*Paper_Space0
340
26
  0
BLOCK_RECORD
  5
30
330
1
100
AcDbSymbolTableRecord
100
AcDbBlockTableRecord
  2
注記
340
0
  0
BLOCK_RECORD
  5
36
330
1
100
AcDbSymbolTableRecord
100
AcDbBlockTableRecord
  2
KOZU0001
340
0
102
{BLKREFS
331
190
102
}
  0
BLOCK_RECORD
  5
40
330
1
100
AcDbSymbolTableRecord
100
AcDbBlockTableRecord
  2
KOZU0002
340
0
102
{BLKREFS
331
191
102
}
  0
BLOCK_RECORD
  5
4A
330
1
100
AcDbSymbolTableRecord
100
AcDbBlockTableRecord
  2
KOZU0003
340
0
102
{BLKREFS
331
192
102
}
  0
ENDTAB
  0
ENDSEC
  0
SECTION
  2
BLOCKS
  0
BLOCK
  5
20
330
1F
100
AcDbEntity
  8
0
100
AcDbBlockBegin
  2
*Model_Space
 70
     0
 71
     0
 10
0.0
 20
0.0
 30
0.0
  3
*Model_Space
  1

  0
ENDBLK
  5
21
330
1F
100
AcDbEntity
  8
0
100
AcDbBlockEnd
  0
BLOCK
  5
1C
330
1B
100
AcDbEntity
 67
     1
  8
0
100
AcDbBlockBegin
  2
*Paper_Space
 70
     0
 71
     0
 10
0.0
 20
0.0
 30
0.0
  3
*Paper_Space
  1

  0
ENDBLK
  5
1D
330
1B
100
AcDbEntity
 67
     1
  8
0
100
AcDbBlockEnd
  0
BLOCK
  5
24
330
23
100
AcDbEntity
  8
0
100
AcDbBlockBegin
  2
*Paper_Space0
 70
     0
 71
     0
 10
0.0
 20
0.0
 30
0.0
  3
*Paper_Space0
  1

  0
ENDBLK
  5
25
330
23
100
AcDbEntity
  8
0
100
AcDbBlockEnd
  0
BLOCK
  5
31
330
30
100
AcDbEntity
  8
0
100
AcDbBlockBegin
  2
注記
 70
     0
 71
     0
 10
0.0
 20
0.0
 30
0.0
  3
注記
  1

  0
MTEXT
  5
34
330
30
100
AcDbEntity
  8
0
  6
Continuous
 62
     7
370
     0
100
AcDbMText
 10
0.2636785918
 20
9.0739778448
 30
0.0
 40
3.5
 41
0.0
 71
     1
 72
     1
  1
１．特記ナキ角部ハ、バリ　カエリノ無キコト。
  7
SLDTEXTSTYLE0
 73
     1
 44
1.0
  0
MTEXT
  5
35
330
30
100
AcDbEntity
  8
0
  6
Continuous
 62
     7
370
     0
100
AcDbMText
 10
0.2636785918
 20
3.5759549983
 30
0.0
 40
3.5
 41
0.0
 71
     1
 72
     1
  1
２．特記ナキ隅部ハ、Ｒ０．４ＭＡＸトスル。
  7
SLDTEXTSTYLE0
 73
     1
 44
1.0
  0
ENDBLK
  5
32
330
30
100
AcDbEntity
  8
0
100
AcDbBlockEnd
  0
BLOCK
  5
37
330
36
100
AcDbEntity
  8
0
100
AcDbBlockBegin
  2
KOZU0001
 70
     0
 71
     0
 10
0.0
 20
0.0
 30
0.0
  3
KOZU0001
  1

  0
LINE
  5
39
330
36
100
AcDbEntity
  8
SLD-0
  6
Continuous
 62
   179
100
AcDbLine
 10
0.0
 20
0.0
 30
0.0
 11
15.5167934227
 21
-20.808551152
 31
0.0
  0
LINE
  5
3A
330
36
100
AcDbEntity
  8
SLD-0
  6
Continuous
 62
   179
100
AcDbLine
 10
0.0
 20
0.0
 30
0.0
 11
2.5950182575
 21
-1.8071745745
 31
0.0
  0
LINE
  5
3B
330
36
100
AcDbEntity
  8
SLD-0
  6
Continuous
 62
   179
100
AcDbLine
 10
0.0
 20
0.0
 30
0.0
 11
0.9917098613
 21
-3.0027506141
 31
0.0
  0
LINE
  5
3C
330
36
100
AcDbEntity
  8
SLD-0
  6
Continuous
 62
   179
100
AcDbLine
 10
0.0
 20
0.0
 30
0.0
 11
15.5167934227
 21
-20.808551152
 31
0.0
  0
LINE
  5
3D
330
36
100
AcDbEntity
  8
SLD-0
  6
Continuous
 62
   179
100
AcDbLine
 10
15.5167934227
 20
-20.808551152
 30
0.0
 11
35.2305661967
 21
-20.808551152
 31
0.0
  0
MTEXT
  5
3F
330
36
100
AcDbEntity
  8
SLD-0
100
AcDbMText
 10
18.3165662815
 20
-17.3538447821
 30
0.0
 40
3.2000000477
 41
0.0
 71
     1
 72
     1
  1
ＰＴ１／８
  7
SLDTEXTSTYLE1
 73
     1
 44
1.0
  0
ENDBLK
  5
38
330
36
100
AcDbEntity
  8
0
100
AcDbBlockEnd
  0
BLOCK
  5
41
330
40
100
AcDbEntity
  8
0
100
AcDbBlockBegin
  2
KOZU0002
 70
     0
 71
     0
 10
0.0
 20
0.0
 30
0.0
  3
KOZU0002
  1

  0
LINE
  5
43
330
40
100
AcDbEntity
  8
SLD-0
  6
Continuous
 62
   179
100
AcDbLine
 10
0.0
 20
0.0
 30
0.0
 11
6.0588935791
 21
11.7568400419
 31
0.0
  0
LINE
  5
44
330
40
100
AcDbEntity
  8
SLD-0
  6
Continuous
 62
   179
100
AcDbLine
 10
0.0
 20
0.0
 30
0.0
 11
0.4853865949
 21
3.1248039224
 31
0.0
  0
LINE
  5
45
330
40
100
AcDbEntity
  8
SLD-0
  6
Continuous
 62
   179
100
AcDbLine
 10
0.0
 20
0.0
 30
0.0
 11
2.2631916293
 21
2.208611181
 31
0.0
  0
LINE
  5
46
330
40
100
AcDbEntity
  8
SLD-0
  6
Continuous
 62
   179
100
AcDbLine
 10
0.0
 20
0.0
 30
0.0
 11
6.0588935791
 21
11.7568400419
 31
0.0
  0
LINE
  5
47
330
40
100
AcDbEntity
  8
SLD-0
  6
Continuous
 62
   179
100
AcDbLine
 10
6.0588935791
 20
11.7568400419
 30
0.0
 11
32.5767635284
 21
11.7568400419
 31
0.0
  0
MTEXT
  5
49
330
40
100
AcDbEntity
  8
SLD-0
100
AcDbMText
 10
9.2627636371
 20
15.2115564622
 30
0.0
 40
3.2000000477
 41
0.0
 71
     1
 72
     1
  1
２－Ｍ４深１０
  7
SLDTEXTSTYLE2
 73
     1
 44
1.0
  0
ENDBLK
  5
42
330
40
100
AcDbEntity
  8
0
100
AcDbBlockEnd
  0
BLOCK
  5
4B
330
4A
100
AcDbEntity
  8
0
100
AcDbBlockBegin
  2
KOZU0003
 70
     0
 71
     0
 10
0.0
 20
0.0
 30
0.0
  3
KOZU0003
  1

  0
LINE
  5
4D
330
4A
100
AcDbEntity
  8
SLD-0
  6
Continuous
 62
   179
100
AcDbLine
 10
0.0
 20
0.0
 30
0.0
 11
5.2737856705
 21
-24.8118904826
 31
0.0
  0
LINE
  5
4E
330
4A
100
AcDbEntity
  8
SLD-0
  6
Continuous
 62
   179
100
AcDbLine
 10
0.0
 20
0.0
 30
0.0
 11
1.2000503096
 21
-2.9428059656
 31
0.0
  0
LINE
  5
4F
330
4A
100
AcDbEntity
  8
SLD-0
  6
Continuous
 62
   179
100
AcDbLine
 10
0.0
 20
0.0
 30
0.0
 11
0.1006111211
 21
-3.1764925781
 31
0.0
  0
LINE
  5
50
330
4A
100
AcDbEntity
  8
SLD-0
  6
Continuous
 62
   179
100
AcDbLine
 10
0.0
 20
0.0
 30
0.0
 11
5.2737856705
 21
-24.8118904826
 31
0.0
  0
LINE
  5
51
330
4A
100
AcDbEntity
  8
SLD-0
  6
Continuous
 62
   179
100
AcDbLine
 10
5.2737856705
 20
-24.8118904826
 30
0.0
 11
52.4065916478
 21
-24.8118904826
 31
0.0
  0
MTEXT
  5
53
330
4A
100
AcDbEntity
  8
SLD-0
100
AcDbMText
 10
9.8925918281
 20
-21.357171055
 30
0.0
 40
3.2000000477
 41
0.0
 71
     1
 72
     1
  1
六角穴付テーパーネジプラグ
  7
SLDTEXTSTYLE3
 73
     1
 44
1.0
  0
MTEXT
  5
54
330
4A
100
AcDbEntity
  8
SLD-0
100
AcDbMText
 10
9.8925918281
 20
-26.9731711387
 30
0.0
 40
3.2000000477
 41
0.0
 71
     1
 72
     1
  1
ＰＴ１／８
  7
SLDTEXTSTYLE1
 73
     1
 44
1.0
  0
ENDBLK
  5
4C
330
4A
100
AcDbEntity
  8
0
100
AcDbBlockEnd
  0
ENDSEC
  0
SECTION
  2
ENTITIES
  0
LINE
  5
55
330
1F
100
AcDbEntity
  8
SLD-0
  6
Continuous
 62
   179
100
AcDbLine
 10
63.1373727257
 20
209.020876865
 30
0.0
 11
60.3873679882
 21
207.4331641958
 31
0.0
  0
LINE
  5
56
330
1F
100
AcDbEntity
  8
SLD-0
  6
Continuous
 62
   179
100
AcDbLine
 10
60.3873291016
 20
207.4331817627
 30
0.0
 11
60.3873291016
 21
204.2577667236
 31
0.0
  0
LINE
  5
57
330
1F
100
AcDbEntity
  8
SLD-0
  6
Continuous
 62
   179
100
AcDbLine
 10
63.1373514769
 20
202.6700587448
 30
0.0
 11
60.3873625013
 21
204.257768197
 31
0.0
  0
LINE
  5
58
330
1F
100
AcDbEntity
  8
SLD-0
  6
Continuous
 62
   179
100
AcDbLine
 10
65.8873684308
 20
204.2577346645
 30
0.0
 11
63.1373636933
 21
202.6700219953
 31
0.0
  0
LINE
  5
59
330
1F
100
AcDbEntity
  8
SLD-0
  6
Continuous
 62
   179
100
AcDbLine
 10
65.8873291016
 20
207.4331817627
 30
0.0
 11
65.8873291016
 21
204.2577667236
 31
0.0
  0
LINE
  5
5A
330
1F
100
AcDbEntity
  8
SLD-0
  6
Continuous
 62
   179
100
AcDbLine
 10
63.1373658487
 20
209.0209059851
 30
0.0
 11
65.8873548243
 21
207.433196533
 31
0.0
  0
LINE
  5
5B
330
1F
100
AcDbEntity
  8
SLD-0
  6
CENTER
 62
   179
100
AcDbLine
 10
58.0623474121
 20
205.8454742432
 30
0.0
 11
68.089630127
 21
205.8454742432
 31
0.0
  0
LINE
  5
5C
330
1F
100
AcDbEntity
  8
SLD-0
  6
Continuous
 62
   179
100
AcDbLine
 10
60.8873291016
 20
236.9187927246
 30
0.0
 11
65.3873291016
 21
236.9187927246
 31
0.0
  0
LINE
  5
5D
330
1F
100
AcDbEntity
  8
SLD-0
  6
Continuous
 62
   179
100
AcDbLine
 10
60.3873291016
 20
237.9187927246
 30
0.0
 11
65.8873291016
 21
237.9187927246
 31
0.0
  0
LINE
  5
5E
330
1F
100
AcDbEntity
  8
SLD-0
  6
Continuous
 62
   179
100
AcDbLine
 10
60.3873291016
 20
237.4187927246
 30
0.0
 11
60.3873291016
 21
237.9187927246
 31
0.0
  0
LINE
  5
5F
330
1F
100
AcDbEntity
  8
SLD-0
  6
Continuous
 62
   179
100
AcDbLine
 10
65.8873291016
 20
237.4187927246
 30
0.0
 11
65.8873291016
 21
237.9187927246
 31
0.0
  0
LINE
  5
60
330
1F
100
AcDbEntity
  8
SLD-0
  6
Continuous
 62
   179
100
AcDbLine
 10
126.0623168945
 20
208.0954742432
 30
0.0
 11
126.0623168945
 21
203.5954742432
 31
0.0
  0
LINE
  5
61
330
1F
100
AcDbEntity
  8
SLD-0
  6
Continuous
 62
   179
100
AcDbLine
 10
127.0623168945
 20
208.587890625
 30
0.0
 11
127.0623168945
 21
203.1030578613
 31
0.0
  0
LINE
  5
62
330
1F
100
AcDbEntity
  8
SLD-0
  6
Continuous
 62
   179
100
AcDbLine
 10
126.5623168945
 20
208.5954742432
 30
0.0
 11
127.0623168945
 21
208.5954742432
 31
0.0
  0
LINE
  5
63
330
1F
100
AcDbEntity
  8
SLD-0
  6
Continuous
 62
   179
100
AcDbLine
 10
126.5623168945
 20
203.0954742432
 30
0.0
 11
127.0623168945
 21
203.0954742432
 31
0.0
  0
LINE
  5
64
330
1F
100
AcDbEntity
  8
SLD-0
  6
Continuous
 62
   179
100
AcDbLine
 10
127.0623168945
 20
208.587890625
 30
0.0
 11
127.3123132443
 21
209.0208994462
 31
0.0
  0
LINE
  5
65
330
1F
100
AcDbEntity
  8
SLD-0
  6
Continuous
 62
   179
100
AcDbLine
 10
127.0623168945
 20
203.1030578613
 30
0.0
 11
127.3123364104
 21
202.670025703
 31
0.0
  0
LINE
  5
66
330
1F
100
AcDbEntity
  8
SLD-0
  6
Continuous
 62
   179
100
AcDbLine
 10
60.3873291016
 20
238.3187866211
 30
0.0
 11
60.3873291016
 21
238.1687927246
 31
0.0
  0
LINE
  5
67
330
1F
100
AcDbEntity
  8
SLD-0
  6
Continuous
 62
   179
100
AcDbLine
 10
65.8873291016
 20
238.3187866211
 30
0.0
 11
65.8873291016
 21
238.1687927246
 31
0.0
  0
LINE
  5
68
330
1F
100
AcDbEntity
  8
SLD-0
  6
Continuous
 62
   179
100
AcDbLine
 10
60.3873490971
 20
238.1687931534
 30
0.0
 11
60.8203636194
 21
237.9187963065
 31
0.0
  0
LINE
  5
69
330
1F
100
AcDbEntity
  8
SLD-0
  6
Continuous
 62
   179
100
AcDbLine
 10
63.1373291016
 20
238.1687927246
 30
0.0
 11
63.1373291016
 21
238.3187866211
 31
0.0
  0
LINE
  5
6A
330
1F
100
AcDbEntity
  8
SLD-0
  6
Continuous
 62
   179
100
AcDbLine
 10
65.8873576219
 20
238.1687624989
 30
0.0
 11
65.4543364923
 21
237.9187618374
 31
0.0
  0
LINE
  5
6B
330
1F
100
AcDbEntity
  8
SLD-0
  6
Continuous
 62
   179
100
AcDbLine
 10
79.6373291016
 20
99.8454818726
 30
0.0
 11
46.6373291016
 21
99.8454818726
 31
0.0
  0
LINE
  5
6C
330
1F
100
AcDbEntity
  8
SLD-0
  6
Continuous
 62
   179
100
AcDbLine
 10
45.1373291016
 20
119.8454818726
 30
0.0
 11
81.1373443604
 21
119.8454818726
 31
0.0
  0
LINE
  5
6D
330
1F
100
AcDbEntity
  8
SLD-0
  6
Continuous
 62
   179
100
AcDbLine
 10
81.1373114812
 20
101.3454715199
 30
0.0
 11
79.6373291016
 21
99.8454818726
 31
0.0
  0
LINE
  5
6E
330
1F
100
AcDbEntity
  8
SLD-0
  6
Continuous
 62
   179
100
AcDbLine
 10
46.6373124311
 20
99.8454802617
 30
0.0
 11
45.1373221084
 21
101.3454715959
 31
0.0
  0
LINE
  5
6F
330
1F
100
AcDbEntity
  8
SLD-0
  6
Continuous
 62
   179
100
AcDbLine
 10
81.1373291016
 20
101.3454818726
 30
0.0
 11
59.5663452148
 21
101.3454818726
 31
0.0
  0
LINE
  5
70
330
1F
100
AcDbEntity
  8
SLD-0
  6
Continuous
 62
   179
100
AcDbLine
 10
45.1373291016
 20
182.8454742432
 30
0.0
 11
81.1373443604
 21
182.8454742432
 31
0.0
  0
LINE
  5
71
330
1F
100
AcDbEntity
  8
SLD-0
  6
CENTER
 62
   179
100
AcDbLine
 10
63.1373291016
 20
215.8454742432
 30
0.0
 11
63.1373291016
 21
96.8454818726
 31
0.0
  0
LINE
  5
72
330
1F
100
AcDbEntity
  8
SLD-0
  6
Continuous
 62
   179
100
AcDbLine
 10
56.5788574219
 20
212.8454742432
 30
0.0
 11
69.6958007813
 21
212.8454742432
 31
0.0
  0
LINE
  5
73
330
1F
100
AcDbEntity
  8
SLD-0
  6
Continuous
 62
   179
100
AcDbLine
 10
45.1373167956
 20
182.8454869612
 30
0.0
 11
46.6373171437
 21
187.3454781098
 31
0.0
  0
LINE
  5
74
330
1F
100
AcDbEntity
  8
SLD-0
  6
Continuous
 62
   179
100
AcDbLine
 10
53.097076416
 20
194.8454742432
 30
0.0
 11
72.8609008789
 21
194.8454742432
 31
0.0
  0
LINE
  5
75
330
1F
100
AcDbEntity
  8
SLD-0
  6
Continuous
 62
   179
100
AcDbLine
 10
60.8565368652
 20
210.3454742432
 30
0.0
 11
65.4181518555
 21
210.3454742432
 31
0.0
  0
LINE
  5
76
330
1F
100
AcDbEntity
  8
SLD-0
  6
Continuous
 62
   179
100
AcDbLine
 10
53.1994073397
 20
197.8549805234
 30
0.0
 11
59.0787773212
 21
209.2617804222
 31
0.0
  0
LINE
  5
77
330
1F
100
AcDbEntity
  8
SLD-0
  6
Continuous
 62
   179
100
AcDbLine
 10
67.195911618
 20
209.2617586773
 30
0.0
 11
73.0752833471
 21
197.8549553877
 31
0.0
  0
LINE
  5
78
330
1F
100
AcDbEntity
  8
SLD-0
  6
Continuous
 62
   179
100
AcDbLine
 10
65.4181656735
 20
210.345494658
 30
0.0
 11
67.1626363823
 21
211.3526692814
 31
0.0
  0
LINE
  5
79
330
1F
100
AcDbEntity
  8
SLD-0
  6
Continuous
 62
   179
100
AcDbLine
 10
60.8565562308
 20
210.3454795826
 30
0.0
 11
59.1120541191
 21
211.3526608497
 31
0.0
  0
LINE
  5
7A
330
1F
100
AcDbEntity
  8
SLD-0
  6
Continuous
 62
   179
100
AcDbLine
 10
46.6373291016
 20
187.3454742432
 30
0.0
 11
47.7669067383
 21
187.3454742432
 31
0.0
  0
LINE
  5
7B
330
1F
100
AcDbEntity
  8
SLD-0
  6
Continuous
 62
   179
100
AcDbLine
 10
47.7669067383
 20
187.3454742432
 30
0.0
 11
54.6561794445
 21
211.3962293391
 31
0.0
  0
LINE
  5
7C
330
1F
100
AcDbEntity
  8
SLD-0
  6
Continuous
 62
   179
100
AcDbLine
 10
81.1373443604
 20
182.8454742432
 30
0.0
 11
79.6373454541
 21
187.3454753815
 31
0.0
  0
LINE
  5
7D
330
1F
100
AcDbEntity
  8
SLD-0
  6
Continuous
 62
   179
100
AcDbLine
 10
79.6373454541
 20
187.3454753815
 30
0.0
 11
78.5077514648
 21
187.3454742432
 31
0.0
  0
LINE
  5
7E
330
1F
100
AcDbEntity
  8
SLD-0
  6
Continuous
 62
   179
100
AcDbLine
 10
78.5077640805
 20
187.345460665
 30
0.0
 11
71.6184941202
 21
211.3962101785
 31
0.0
  0
LINE
  5
7F
330
1F
100
AcDbEntity
  8
SLD-0
  6
Continuous
 62
   179
100
AcDbLine
 10
54.4021911621
 20
238.3187866211
 30
0.0
 11
71.8724975586
 21
238.3187866211
 31
0.0
  0
LINE
  5
80
330
1F
100
AcDbEntity
  8
SLD-0
  6
Continuous
 62
   179
100
AcDbLine
 10
47.7669067383
 20
254.3187866211
 30
0.0
 11
78.5077514648
 21
254.3187866211
 31
0.0
  0
LINE
  5
81
330
1F
100
AcDbEntity
  8
SLD-0
  6
Continuous
 62
   179
100
AcDbLine
 10
47.7669067383
 20
242.3187866211
 30
0.0
 11
78.5077514648
 21
242.3187866211
 31
0.0
  0
LINE
  5
82
330
1F
100
AcDbEntity
  8
SLD-0
  6
Continuous
 62
   179
100
AcDbLine
 10
54.4021911621
 20
258.3187866211
 30
0.0
 11
71.8724975586
 21
258.3187866211
 31
0.0
  0
LINE
  5
83
330
1F
100
AcDbEntity
  8
SLD-0
  6
Continuous
 62
   179
100
AcDbLine
 10
59.2435913086
 20
240.3187866211
 30
0.0
 11
67.0310668945
 21
240.3187866211
 31
0.0
  0
LINE
  5
84
330
1F
100
AcDbEntity
  8
SLD-0
  6
Continuous
 62
   179
100
AcDbLine
 10
120.962310791
 20
99.8454818726
 30
0.0
 11
152.9294586182
 21
99.8454818726
 31
0.0
  0
LINE
  5
85
330
1F
100
AcDbEntity
  8
SLD-0
  6
Continuous
 62
   179
100
AcDbLine
 10
155.462310791
 20
119.8454818726
 30
0.0
 11
119.462310791
 21
119.8454818726
 31
0.0
  0
LINE
  5
86
330
1F
100
AcDbEntity
  8
SLD-0
  6
Continuous
 62
   179
100
AcDbLine
 10
119.462310791
 20
101.3454818726
 30
0.0
 11
141.0332794189
 21
101.3454818726
 31
0.0
  0
LINE
  5
87
330
1F
100
AcDbEntity
  8
SLD-0
  6
Continuous
 62
   179
100
AcDbLine
 10
155.462310791
 20
182.8454742432
 30
0.0
 11
119.462310791
 21
182.8454742432
 31
0.0
  0
LINE
  5
88
330
1F
100
AcDbEntity
  8
SLD-0
  6
CENTER
 62
   179
100
AcDbLine
 10
137.462310791
 20
215.8454742432
 30
0.0
 11
137.462310791
 21
96.8454818726
 31
0.0
  0
LINE
  5
89
330
1F
100
AcDbEntity
  8
SLD-0
  6
Continuous
 62
   179
100
AcDbLine
 10
129.462310791
 20
212.8454742432
 30
0.0
 11
131.462310791
 21
212.8454742432
 31
0.0
  0
LINE
  5
8A
330
1F
100
AcDbEntity
  8
SLD-0
  6
Continuous
 62
   179
100
AcDbLine
 10
127.462312736
 20
210.8454729465
 30
0.0
 11
127.462312736
 21
194.8454729465
 31
0.0
  0
LINE
  5
8B
330
1F
100
AcDbEntity
  8
SLD-0
  6
Continuous
 62
   179
100
AcDbLine
 10
147.462310791
 20
210.8454742432
 30
0.0
 11
147.462310791
 21
194.8454742432
 31
0.0
  0
LINE
  5
8C
330
1F
100
AcDbEntity
  8
SLD-0
  6
Continuous
 62
   179
100
AcDbLine
 10
131.462310791
 20
212.8454742432
 30
0.0
 11
131.462310791
 21
187.3454742432
 31
0.0
  0
LINE
  5
8D
330
1F
100
AcDbEntity
  8
SLD-0
  6
Continuous
 62
   179
100
AcDbLine
 10
143.462310791
 20
212.8454742432
 30
0.0
 11
143.462310791
 21
187.3454742432
 31
0.0
  0
LINE
  5
8E
330
1F
100
AcDbEntity
  8
SLD-0
  6
Continuous
 62
   179
100
AcDbLine
 10
143.462310791
 20
212.8454742432
 30
0.0
 11
145.462310791
 21
212.8454742432
 31
0.0
  0
LINE
  5
8F
330
1F
100
AcDbEntity
  8
SLD-0
  6
Continuous
 62
   179
100
AcDbLine
 10
131.462310791
 20
187.3454742432
 30
0.0
 11
143.462310791
 21
187.3454742432
 31
0.0
  0
LINE
  5
90
330
1F
100
AcDbEntity
  8
SLD-0
  6
Continuous
 62
   179
100
AcDbLine
 10
127.4623081754
 20
210.8454876191
 30
0.0
 11
129.4623080569
 21
212.8454974473
 31
0.0
  0
LINE
  5
91
330
1F
100
AcDbEntity
  8
SLD-0
  6
Continuous
 62
   179
100
AcDbLine
 10
145.4623077724
 20
212.8454921371
 30
0.0
 11
147.4623109413
 21
210.8454909912
 31
0.0
  0
LINE
  5
92
330
1F
100
AcDbEntity
  8
SLD-0
  6
Continuous
 62
   179
100
AcDbLine
 10
127.462310791
 20
210.3454742432
 30
0.0
 11
131.462310791
 21
210.3454742432
 31
0.0
  0
LINE
  5
93
330
1F
100
AcDbEntity
  8
SLD-0
  6
Continuous
 62
   179
100
AcDbLine
 10
143.462310791
 20
210.3454742432
 30
0.0
 11
147.462310791
 21
210.3454742432
 31
0.0
  0
LINE
  5
94
330
1F
100
AcDbEntity
  8
SLD-0
  6
Continuous
 62
   179
100
AcDbLine
 10
61.1373291016
 20
258.5187988281
 30
0.0
 11
62.6373291016
 21
258.5187988281
 31
0.0
  0
LINE
  5
95
330
1F
100
AcDbEntity
  8
SLD-0
  6
CENTER
 62
   179
100
AcDbLine
 10
149.2858505249
 20
205.8454742432
 30
0.0
 11
125.6623077393
 21
205.8454742432
 31
0.0
  0
LINE
  5
96
330
1F
100
AcDbEntity
  8
SLD-0
  6
Continuous
 62
   179
100
AcDbLine
 10
60.9373349219
 20
258.3187849425
 30
0.0
 11
61.1373348679
 21
258.5187848885
 31
0.0
  0
LINE
  5
97
330
1F
100
AcDbEntity
  8
SLD-0
  6
Continuous
 62
   179
100
AcDbLine
 10
65.33733778
 20
258.318791686
 30
0.0
 11
65.1373418801
 21
258.5187875859
 31
0.0
  0
LINE
  5
98
330
1F
100
AcDbEntity
  8
SLD-0
  6
Continuous
 62
   179
100
AcDbLine
 10
62.6373291016
 20
258.5187988281
 30
0.0
 11
62.6373291016
 21
258.3187866211
 31
0.0
  0
LINE
  5
99
330
1F
100
AcDbEntity
  8
SLD-0
  6
Continuous
 62
   179
100
AcDbLine
 10
63.6373291016
 20
258.5187988281
 30
0.0
 11
63.6373291016
 21
258.3187866211
 31
0.0
  0
LINE
  5
9A
330
1F
100
AcDbEntity
  8
SLD-0
  6
Continuous
 62
   179
100
AcDbLine
 10
63.6373291016
 20
258.5187988281
 30
0.0
 11
65.1373291016
 21
258.5187988281
 31
0.0
  0
LINE
  5
9B
330
1F
100
AcDbEntity
  8
SLD-0
  6
Continuous
 62
   179
100
AcDbLine
 10
65.1373291016
 20
254.3187866211
 30
0.0
 11
65.1373291016
 21
242.3187866211
 31
0.0
  0
LINE
  5
9C
330
1F
100
AcDbEntity
  8
SLD-0
  6
Continuous
 62
   179
100
AcDbLine
 10
61.1373291016
 20
254.3187866211
 30
0.0
 11
61.1373291016
 21
242.3187866211
 31
0.0
  0
LINE
  5
9D
330
1F
100
AcDbEntity
  8
SLD-0
  6
Continuous
 62
   179
100
AcDbLine
 10
61.1373291016
 20
242.3187866211
 30
0.0
 11
65.1373291016
 21
242.3187866211
 31
0.0
  0
LINE
  5
9E
330
1F
100
AcDbEntity
  8
SLD-0
  6
Continuous
 62
   179
100
AcDbLine
 10
147.6623077393
 20
207.8454742432
 30
0.0
 11
147.6623077393
 21
206.3454742432
 31
0.0
  0
LINE
  5
9F
330
1F
100
AcDbEntity
  8
SLD-0
  6
HIDDEN
 62
   179
100
AcDbLine
 10
146.6623077393
 20
208.8454742432
 30
0.0
 11
145.6623077393
 21
208.8454742432
 31
0.0
  0
LINE
  5
A0
330
1F
100
AcDbEntity
  8
SLD-0
  6
HIDDEN
 62
   179
100
AcDbLine
 10
146.6623077393
 20
202.8454742432
 30
0.0
 11
145.6623077393
 21
202.8454742432
 31
0.0
  0
LINE
  5
A1
330
1F
100
AcDbEntity
  8
SLD-0
  6
HIDDEN
 62
   179
100
AcDbLine
 10
146.6623077393
 20
208.8454742432
 30
0.0
 11
146.6623077393
 21
202.8454742432
 31
0.0
  0
LINE
  5
A2
330
1F
100
AcDbEntity
  8
SLD-0
  6
HIDDEN
 62
   179
100
AcDbLine
 10
146.6623102962
 20
208.8454897604
 30
0.0
 11
147.4623071805
 21
208.0454978662
 31
0.0
  0
LINE
  5
A3
330
1F
100
AcDbEntity
  8
SLD-0
  6
HIDDEN
 62
   179
100
AcDbLine
 10
146.6623040031
 20
202.8454862724
 30
0.0
 11
147.4623125874
 21
203.6454988354
 31
0.0
  0
LINE
  5
A4
330
1F
100
AcDbEntity
  8
SLD-0
  6
Continuous
 62
   179
100
AcDbLine
 10
147.6623077393
 20
206.3454742432
 30
0.0
 11
147.462310791
 21
206.3454742432
 31
0.0
  0
LINE
  5
A5
330
1F
100
AcDbEntity
  8
SLD-0
  6
Continuous
 62
   179
100
AcDbLine
 10
147.6623077393
 20
205.3454742432
 30
0.0
 11
147.462310791
 21
205.3454742432
 31
0.0
  0
LINE
  5
A6
330
1F
100
AcDbEntity
  8
SLD-0
  6
Continuous
 62
   179
100
AcDbLine
 10
147.6623077393
 20
205.3454742432
 30
0.0
 11
147.6623077393
 21
203.8454742432
 31
0.0
  0
LINE
  5
A7
330
1F
100
AcDbEntity
  8
SLD-0
  6
HIDDEN
 62
   179
100
AcDbLine
 10
145.6623077393
 20
203.8454742432
 30
0.0
 11
143.462310791
 21
203.8454742432
 31
0.0
  0
LINE
  5
A8
330
1F
100
AcDbEntity
  8
SLD-0
  6
HIDDEN
 62
   179
100
AcDbLine
 10
145.6623077393
 20
207.8454742432
 30
0.0
 11
143.462310791
 21
207.8454742432
 31
0.0
  0
LINE
  5
A9
330
1F
100
AcDbEntity
  8
SLD-0
  6
Continuous
 62
   179
100
AcDbLine
 10
131.462310791
 20
207.8454742432
 30
0.0
 11
131.462310791
 21
203.8454742432
 31
0.0
  0
LINE
  5
AA
330
1F
100
AcDbEntity
  8
SLD-0
  6
CENTER
 62
   179
100
AcDbLine
 10
126.2623062134
 20
205.8454742432
 30
0.0
 11
121.3781890869
 21
205.8454742432
 31
0.0
  0
LINE
  5
AB
330
1F
100
AcDbEntity
  8
SLD-0
  6
Continuous
 62
   179
100
AcDbLine
 10
57.5663452148
 20
114.8454818726
 30
0.0
 11
45.4951171875
 21
114.8454818726
 31
0.0
  0
LINE
  5
AC
330
1F
100
AcDbEntity
  8
SLD-0
  6
Continuous
 62
   179
100
AcDbLine
 10
58.9405799735
 20
239.4210674749
 30
0.0
 11
59.4759395175
 21
239.0131878075
 31
0.0
  0
LINE
  5
AD
330
1F
100
AcDbEntity
  8
SLD-0
  6
Continuous
 62
   179
100
AcDbLine
 10
67.3340984347
 20
239.4210460369
 30
0.0
 11
66.7987486356
 21
239.0131661682
 31
0.0
  0
LINE
  5
AE
330
1F
100
AcDbEntity
  8
SLD-0
  6
Continuous
 62
   179
100
AcDbLine
 10
58.9405886558
 20
257.2165084026
 30
0.0
 11
59.4759274796
 21
257.6243774986
 31
0.0
  0
LINE
  5
AF
330
1F
100
AcDbEntity
  8
SLD-0
  6
Continuous
 62
   179
100
AcDbLine
 10
59.2435913086
 20
256.3187866211
 30
0.0
 11
67.0310668945
 21
256.3187866211
 31
0.0
  0
LINE
  5
B0
330
1F
100
AcDbEntity
  8
SLD-0
  6
Continuous
 62
   179
100
AcDbLine
 10
67.3341010745
 20
257.2164952854
 30
0.0
 11
66.7987500303
 21
257.6243861087
 31
0.0
  0
LINE
  5
B1
330
1F
100
AcDbEntity
  8
SLD-0
  6
Continuous
 62
   179
100
AcDbLine
 10
45.4951171875
 20
101.3454818726
 30
0.0
 11
45.1373291016
 21
101.3454818726
 31
0.0
  0
LINE
  5
B2
330
1F
100
AcDbEntity
  8
SLD-0
  6
HIDDEN
 62
   179
100
AcDbLine
 10
129.2623062134
 20
202.1954803467
 30
0.0
 11
127.462310791
 21
202.1954803467
 31
0.0
  0
LINE
  5
B3
330
1F
100
AcDbEntity
  8
SLD-0
  6
HIDDEN
 62
   179
100
AcDbLine
 10
129.2623062134
 20
209.4954681396
 30
0.0
 11
127.462310791
 21
209.4954681396
 31
0.0
  0
LINE
  5
B4
330
1F
100
AcDbEntity
  8
SLD-0
  6
HIDDEN
 62
   179
100
AcDbLine
 10
129.2623062134
 20
209.4954681396
 30
0.0
 11
129.2623062134
 21
202.1954803467
 31
0.0
  0
LINE
  5
B5
330
1F
100
AcDbEntity
  8
SLD-0
  6
HIDDEN
 62
   179
100
AcDbLine
 10
145.6623077393
 20
209.4954681396
 30
0.0
 11
147.462310791
 21
209.4954681396
 31
0.0
  0
LINE
  5
B6
330
1F
100
AcDbEntity
  8
SLD-0
  6
HIDDEN
 62
   179
100
AcDbLine
 10
145.6623077393
 20
209.4954681396
 30
0.0
 11
145.6623077393
 21
202.1954803467
 31
0.0
  0
LINE
  5
B7
330
1F
100
AcDbEntity
  8
SLD-0
  6
HIDDEN
 62
   179
100
AcDbLine
 10
145.6623077393
 20
202.1954803467
 30
0.0
 11
147.462310791
 21
202.1954803467
 31
0.0
  0
LINE
  5
B8
330
1F
100
AcDbEntity
  8
SLD-0
  6
HIDDEN
 62
   179
100
AcDbLine
 10
130.1623077393
 20
207.8454742432
 30
0.0
 11
130.1623077393
 21
203.8454742432
 31
0.0
  0
LINE
  5
B9
330
1F
100
AcDbEntity
  8
SLD-0
  6
Continuous
 62
   179
100
AcDbLine
 10
147.4623125874
 20
203.6454988354
 30
0.0
 11
147.6622983549
 21
203.8455022122
 31
0.0
  0
LINE
  5
BA
330
1F
100
AcDbEntity
  8
SLD-0
  6
Continuous
 62
   179
100
AcDbLine
 10
147.4623071805
 20
208.0454978662
 30
0.0
 11
147.6623082494
 21
207.8454923898
 31
0.0
  0
LINE
  5
BB
330
1F
100
AcDbEntity
  8
SLD-0
  6
HIDDEN
 62
   179
100
AcDbLine
 10
147.462310791
 20
205.3454742432
 30
0.0
 11
146.6623077393
 21
205.3454742432
 31
0.0
  0
LINE
  5
BC
330
1F
100
AcDbEntity
  8
SLD-0
  6
HIDDEN
 62
   179
100
AcDbLine
 10
147.462310791
 20
206.3454742432
 30
0.0
 11
146.6623077393
 21
206.3454742432
 31
0.0
  0
LINE
  5
BD
330
1F
100
AcDbEntity
  8
SLD-0
  6
HIDDEN
 62
   179
100
AcDbLine
 10
131.462310791
 20
203.8454742432
 30
0.0
 11
130.1623077393
 21
203.8454742432
 31
0.0
  0
LINE
  5
BE
330
1F
100
AcDbEntity
  8
SLD-0
  6
HIDDEN
 62
   179
100
AcDbLine
 10
131.462310791
 20
207.8454742432
 30
0.0
 11
130.1623077393
 21
207.8454742432
 31
0.0
  0
LINE
  5
BF
330
1F
100
AcDbEntity
  8
SLD-0
  6
Continuous
 62
   179
100
AcDbLine
 10
123.6623077393
 20
207.0454711914
 30
0.0
 11
123.6623077393
 21
204.6454772949
 31
0.0
  0
LINE
  5
C0
330
1F
100
AcDbEntity
  8
SLD-0
  6
HIDDEN
 62
   179
100
AcDbLine
 10
130.1623077393
 20
207.3454742432
 30
0.0
 11
129.2623062134
 21
207.3454742432
 31
0.0
  0
LINE
  5
C1
330
1F
100
AcDbEntity
  8
SLD-0
  6
HIDDEN
 62
   179
100
AcDbLine
 10
130.1623077393
 20
204.3454742432
 30
0.0
 11
129.2623062134
 21
204.3454742432
 31
0.0
  0
LINE
  5
C2
330
1F
100
AcDbEntity
  8
SLD-0
  6
Continuous
 62
   179
100
AcDbLine
 10
126.0623168945
 20
204.3454742432
 30
0.0
 11
123.962310791
 21
204.3454742432
 31
0.0
  0
LINE
  5
C3
330
1F
100
AcDbEntity
  8
SLD-0
  6
Continuous
 62
   179
100
AcDbLine
 10
126.0623168945
 20
207.3454742432
 30
0.0
 11
123.962310791
 21
207.3454742432
 31
0.0
  0
LINE
  5
C4
330
1F
100
AcDbEntity
  8
SLD-0
  6
HIDDEN
 62
   179
100
AcDbLine
 10
129.262312324
 20
203.1030700212
 30
0.0
 11
129.012311165
 21
202.6700579885
 31
0.0
  0
LINE
  5
C5
330
1F
100
AcDbEntity
  8
SLD-0
  6
HIDDEN
 62
   179
100
AcDbLine
 10
129.2623149879
 20
208.5878928079
 30
0.0
 11
129.0123138289
 21
209.0209048406
 31
0.0
  0
LINE
  5
C6
330
1F
100
AcDbEntity
  8
SLD-0
  6
Continuous
 62
   179
100
AcDbLine
 10
127.3123132443
 20
209.0208994462
 30
0.0
 11
127.462310791
 21
209.020904541
 31
0.0
  0
LINE
  5
C7
330
1F
100
AcDbEntity
  8
SLD-0
  6
Continuous
 62
   179
100
AcDbLine
 10
127.3123168945
 20
207.4331817627
 30
0.0
 11
127.462310791
 21
207.4331817627
 31
0.0
  0
LINE
  5
C8
330
1F
100
AcDbEntity
  8
SLD-0
  6
Continuous
 62
   179
100
AcDbLine
 10
127.3123321533
 20
204.2577667236
 30
0.0
 11
127.462310791
 21
204.2577667236
 31
0.0
  0
LINE
  5
C9
330
1F
100
AcDbEntity
  8
SLD-0
  6
Continuous
 62
   179
100
AcDbLine
 10
127.3123168945
 20
202.6700439453
 30
0.0
 11
127.462310791
 21
202.6700439453
 31
0.0
  0
LINE
  5
CA
330
1F
100
AcDbEntity
  8
SLD-0
  6
HIDDEN
 62
   179
100
AcDbLine
 10
130.1623077393
 20
204.6454772949
 30
0.0
 11
129.2623062134
 21
204.6454772949
 31
0.0
  0
LINE
  5
CB
330
1F
100
AcDbEntity
  8
SLD-0
  6
HIDDEN
 62
   179
100
AcDbLine
 10
130.1623077393
 20
207.0454711914
 30
0.0
 11
129.2623062134
 21
207.0454711914
 31
0.0
  0
LINE
  5
CC
330
1F
100
AcDbEntity
  8
SLD-0
  6
Continuous
 62
   179
100
AcDbLine
 10
126.0623168945
 20
207.0454711914
 30
0.0
 11
123.6623077393
 21
207.0454711914
 31
0.0
  0
LINE
  5
CD
330
1F
100
AcDbEntity
  8
SLD-0
  6
Continuous
 62
   179
100
AcDbLine
 10
126.0623168945
 20
204.6454772949
 30
0.0
 11
123.6623077393
 21
204.6454772949
 31
0.0
  0
LINE
  5
CE
330
1F
100
AcDbEntity
  8
SLD-0
  6
Continuous
 62
   179
100
AcDbLine
 10
123.962310791
 20
204.3454742432
 30
0.0
 11
123.6623077393
 21
204.6454772949
 31
0.0
  0
LINE
  5
CF
330
1F
100
AcDbEntity
  8
SLD-0
  6
Continuous
 62
   179
100
AcDbLine
 10
123.6623077393
 20
207.0454711914
 30
0.0
 11
123.962310791
 21
207.3454742432
 31
0.0
  0
LINE
  5
D0
330
1F
100
AcDbEntity
  8
SLD-0
  6
Continuous
 62
   179
100
AcDbLine
 10
123.962310791
 20
204.3454742432
 30
0.0
 11
123.962310791
 21
207.3454742432
 31
0.0
  0
LINE
  5
D1
330
1F
100
AcDbEntity
  8
SLD-0
  6
HIDDEN
 62
   179
100
AcDbLine
 10
127.462310791
 20
202.6700439453
 30
0.0
 11
129.012298584
 21
202.6700439453
 31
0.0
  0
LINE
  5
D2
330
1F
100
AcDbEntity
  8
SLD-0
  6
HIDDEN
 62
   179
100
AcDbLine
 10
127.462310791
 20
204.2577667236
 30
0.0
 11
129.0123062134
 21
204.2577667236
 31
0.0
  0
LINE
  5
D3
330
1F
100
AcDbEntity
  8
SLD-0
  6
HIDDEN
 62
   179
100
AcDbLine
 10
127.462310791
 20
207.4331817627
 30
0.0
 11
129.0123062134
 21
207.4331817627
 31
0.0
  0
LINE
  5
D4
330
1F
100
AcDbEntity
  8
SLD-0
  6
HIDDEN
 62
   179
100
AcDbLine
 10
127.462310791
 20
209.020904541
 30
0.0
 11
129.0123138289
 21
209.0209048406
 31
0.0
  0
LINE
  5
D5
330
1F
100
AcDbEntity
  8
SLD-0
  6
Continuous
 62
   179
100
AcDbLine
 10
143.462310791
 20
207.8454742432
 30
0.0
 11
131.462310791
 21
207.8454742432
 31
0.0
  0
LINE
  5
D6
330
1F
100
AcDbEntity
  8
SLD-0
  6
Continuous
 62
   179
100
AcDbLine
 10
143.462310791
 20
203.8454742432
 30
0.0
 11
131.462310791
 21
203.8454742432
 31
0.0
  0
LINE
  5
D7
330
1F
100
AcDbEntity
  8
SLD-0
  6
Continuous
 62
   179
100
AcDbLine
 10
155.462310791
 20
114.8454818726
 30
0.0
 11
143.0332794189
 21
114.8454818726
 31
0.0
  0
LINE
  5
D8
330
1F
100
AcDbEntity
  8
SLD-0
  6
Continuous
 62
   179
100
AcDbLine
 10
59.5663452148
 20
112.8454818726
 30
0.0
 11
59.5663452148
 21
101.3454818726
 31
0.0
  0
LINE
  5
D9
330
1F
100
AcDbEntity
  8
SLD-0
  6
Continuous
 62
   179
100
AcDbLine
 10
45.4951171875
 20
114.8454818726
 30
0.0
 11
45.4951171875
 21
101.3454818726
 31
0.0
  0
LINE
  5
DA
330
1F
100
AcDbEntity
  8
SLD-0
  6
Continuous
 62
   179
100
AcDbLine
 10
47.6701710582
 20
99.8454789796
 30
0.0
 11
45.4950952391
 21
101.3454811289
 31
0.0
  0
LINE
  5
DB
330
1F
100
AcDbEntity
  8
SLD-0
  6
Continuous
 62
   179
100
AcDbLine
 10
59.5663314372
 20
101.3454782603
 30
0.0
 11
57.391284337
 21
99.8454882218
 31
0.0
  0
LINE
  5
DC
330
1F
100
AcDbEntity
  8
SLD-0
  6
Continuous
 62
   179
100
AcDbLine
 10
57.5663452148
 20
112.8454818726
 30
0.0
 11
46.6674804688
 21
112.8454818726
 31
0.0
  0
LINE
  5
DD
330
1F
100
AcDbEntity
  8
SLD-0
  6
CENTER
 62
   179
100
AcDbLine
 10
122.4976272583
 20
109.8454818726
 30
0.0
 11
134.9179382324
 21
109.8454818726
 31
0.0
  0
LINE
  5
DE
330
1F
100
AcDbEntity
  8
SLD-0
  6
Continuous
 62
   179
100
AcDbLine
 10
141.0332794189
 20
112.8454818726
 30
0.0
 11
141.0332794189
 21
101.3454818726
 31
0.0
  0
LINE
  5
DF
330
1F
100
AcDbEntity
  8
SLD-0
  6
Continuous
 62
   179
100
AcDbLine
 10
155.1045362692
 20
113.7039495057
 30
0.0
 11
155.1045362692
 21
101.3454824037
 31
0.0
  0
LINE
  5
E0
330
1F
100
AcDbEntity
  8
SLD-0
  6
Continuous
 62
   179
100
AcDbLine
 10
143.2083448921
 20
99.8454832767
 30
0.0
 11
141.0332794189
 21
101.3454818726
 31
0.0
  0
LINE
  5
E1
330
1F
100
AcDbEntity
  8
SLD-0
  6
Continuous
 62
   179
100
AcDbLine
 10
152.9294681639
 20
99.8454861621
 30
0.0
 11
155.1045362692
 21
101.3454824037
 31
0.0
  0
LINE
  5
E2
330
1F
100
AcDbEntity
  8
SLD-0
  6
Continuous
 62
   179
100
AcDbLine
 10
120.962310791
 20
99.8454818726
 30
0.0
 11
119.462310791
 21
101.3454818726
 31
0.0
  0
LINE
  5
E3
330
1F
100
AcDbEntity
  8
SLD-0
  6
CENTER
 62
   179
100
AcDbLine
 10
83.6773223877
 20
248.3187866211
 30
0.0
 11
42.5973205566
 21
248.3187866211
 31
0.0
  0
LINE
  5
E4
330
1F
100
AcDbEntity
  8
SLD-0
  6
CENTER
 62
   179
100
AcDbLine
 10
63.1373291016
 20
268.858795166
 30
0.0
 11
63.1373291016
 21
227.778793335
 31
0.0
  0
LINE
  5
E5
330
1F
100
AcDbEntity
  8
SLD-0
  6
Continuous
 62
   179
100
AcDbLine
 10
45.4950981549
 20
112.8454727152
 30
0.0
 11
58.6366861913
 21
100.7043451589
 31
0.0
  0
LINE
  5
E6
330
1F
100
AcDbEntity
  8
SLD-0
  6
Continuous
 62
   179
100
AcDbLine
 10
59.5663476124
 20
112.8454575386
 30
0.0
 11
46.4247707838
 21
100.7043403368
 31
0.0
  0
LINE
  5
E7
330
1F
100
AcDbEntity
  8
SLD-0
  6
Continuous
 62
   179
100
AcDbLine
 10
154.0667419434
 20
112.8454818726
 30
0.0
 11
143.0332794189
 21
112.8454818726
 31
0.0
  0
LINE
  5
E8
330
1F
100
AcDbEntity
  8
SLD-0
  6
Continuous
 62
   179
100
AcDbLine
 10
155.1045272832
 20
112.8454846962
 30
0.0
 11
141.9629362914
 21
100.7043687711
 31
0.0
  0
LINE
  5
E9
330
1F
100
AcDbEntity
  8
SLD-0
  6
Continuous
 62
   179
100
AcDbLine
 10
141.0332794189
 20
112.8454818726
 30
0.0
 11
154.1748736042
 21
100.7043594675
 31
0.0
  0
LINE
  5
EA
330
1F
100
AcDbEntity
  8
SLD-0
  6
Continuous
 62
   179
100
AcDbLine
 10
81.1373291016
 20
182.8454742432
 30
0.0
 11
81.1373291016
 21
101.3454818726
 31
0.0
  0
LINE
  5
EB
330
1F
100
AcDbEntity
  8
SLD-0
  6
Continuous
 62
   179
100
AcDbLine
 10
45.1373291016
 20
182.8454742432
 30
0.0
 11
45.1373291016
 21
101.3454818726
 31
0.0
  0
LINE
  5
EC
330
1F
100
AcDbEntity
  8
SLD-0
  6
Continuous
 62
   179
100
AcDbLine
 10
80.7795447748
 20
49.1408766013
 30
0.0
 11
66.7082979646
 21
35.0696274189
 31
0.0
  0
LINE
  5
ED
330
1F
100
AcDbEntity
  8
SLD-0
  6
Continuous
 62
   179
100
AcDbLine
 10
59.5663198755
 20
70.3540716119
 30
0.0
 11
45.4950885994
 21
56.2828284746
 31
0.0
  0
LINE
  5
EE
330
1F
100
AcDbEntity
  8
SLD-0
  6
CENTER
 62
   179
100
AcDbLine
 10
71.4671981101
 20
57.521091697
 30
0.0
 11
81.255231055
 21
63.1722135178
 31
0.0
  0
LINE
  5
EF
330
1F
100
AcDbEntity
  8
SLD-0
  6
CENTER
 62
   179
100
AcDbLine
 10
63.1373291016
 20
32.1718444824
 30
0.0
 11
63.1373291016
 21
73.2518463135
 31
0.0
  0
LINE
  5
F0
330
1F
100
AcDbEntity
  8
SLD-0
  6
CENTER
 62
   179
100
AcDbLine
 10
42.5973205566
 20
52.7118377686
 30
0.0
 11
83.6773376465
 21
52.7118377686
 31
0.0
  0
LINE
  5
F1
330
1F
100
AcDbEntity
  8
SLD-0
  6
CENTER
 62
   179
100
AcDbLine
 10
58.5973205566
 20
40.7118225098
 30
0.0
 11
67.6773376465
 21
40.7118225098
 31
0.0
  0
LINE
  5
F2
330
1F
100
AcDbEntity
  8
SLD-0
  6
CENTER
 62
   179
100
AcDbLine
 10
58.5973205566
 20
64.7118377686
 30
0.0
 11
67.6773071289
 21
64.7118377686
 31
0.0
  0
LINE
  5
F3
330
1F
100
AcDbEntity
  8
SLD-0
  6
CENTER
 62
   179
100
AcDbLine
 10
81.5803833008
 20
109.8454818726
 30
0.0
 11
74.4916992188
 21
109.8454818726
 31
0.0
  0
LINE
  5
F4
330
1F
100
AcDbEntity
  8
SLD-0
  6
CENTER
 62
   179
100
AcDbLine
 10
78.725769043
 20
115.9862670898
 30
0.0
 11
78.725769043
 21
103.9787063599
 31
0.0
  0
LINE
  5
F5
330
1F
100
AcDbEntity
  8
SLD-0
  6
Continuous
 62
   179
100
AcDbLine
 10
155.462310791
 20
182.8454742432
 30
0.0
 11
155.462310791
 21
114.8454818726
 31
0.0
  0
LINE
  5
F6
330
1F
100
AcDbEntity
  8
SLD-0
  6
Continuous
 62
   179
100
AcDbLine
 10
119.462310791
 20
182.8454742432
 30
0.0
 11
119.462310791
 21
101.3454818726
 31
0.0
  0
LINE
  5
F7
330
1F
100
AcDbEntity
  8
SLD-0
  6
CENTER
 62
   179
100
AcDbLine
 10
128.4623031616
 20
116.1309814453
 30
0.0
 11
128.4623031616
 21
103.5013504028
 31
0.0
  0
LINE
  5
F8
330
1F
100
AcDbEntity
  8
SLD-0
  6
Continuous
 62
   179
100
AcDbLine
 10
78.7257743383
 20
112.7954686402
 30
0.0
 11
77.2375827943
 21
111.3203271417
 31
0.0
  0
LINE
  5
F9
330
1F
100
AcDbEntity
  8
SLD-0
  6
Continuous
 62
   179
100
AcDbLine
 10
77.2375793457
 20
111.3203430176
 30
0.0
 11
77.2375793457
 21
108.3703536987
 31
0.0
  0
LINE
  5
FA
330
1F
100
AcDbEntity
  8
SLD-0
  6
Continuous
 62
   179
100
AcDbLine
 10
78.7257724634
 20
106.8954912021
 30
0.0
 11
77.2375793457
 21
108.3703536987
 31
0.0
  0
LINE
  5
FB
330
1F
100
AcDbEntity
  8
SLD-0
  6
Continuous
 62
   179
100
AcDbLine
 10
79.7923552181
 20
108.3705537228
 30
0.0
 11
78.7257459752
 21
106.895494743
 31
0.0
  0
LINE
  5
FC
330
1F
100
AcDbEntity
  8
SLD-0
  6
Continuous
 62
   179
100
AcDbLine
 10
79.7923736572
 20
111.3205337524
 30
0.0
 11
79.7923736572
 21
108.3705368042
 31
0.0
  0
LINE
  5
FD
330
1F
100
AcDbEntity
  8
SLD-0
  6
Continuous
 62
   179
100
AcDbLine
 10
78.7257743008
 20
112.7954837566
 30
0.0
 11
79.7923824039
 21
111.3205463496
 31
0.0
  0
LINE
  5
FE
330
1F
100
AcDbEntity
  8
SLD-0
  6
Continuous
 62
   179
100
AcDbLine
 10
128.4622971442
 20
112.7954731277
 30
0.0
 11
126.3714867058
 21
111.3204627924
 31
0.0
  0
LINE
  5
FF
330
1F
100
AcDbEntity
  8
SLD-0
  6
Continuous
 62
   179
100
AcDbLine
 10
126.3714867058
 20
111.3204627924
 30
0.0
 11
126.3714904785
 21
108.3704833984
 31
0.0
  0
LINE
  5
100
330
1F
100
AcDbEntity
  8
SLD-0
  6
Continuous
 62
   179
100
AcDbLine
 10
128.4622888494
 20
106.8954840679
 30
0.0
 11
126.3714905521
 21
108.3704719083
 31
0.0
  0
LINE
  5
101
330
1F
100
AcDbEntity
  8
SLD-0
  6
Continuous
 62
   179
100
AcDbLine
 10
130.7964326502
 20
108.3705959214
 30
0.0
 11
128.4623009929
 21
106.8954788712
 31
0.0
  0
LINE
  5
102
330
1F
100
AcDbEntity
  8
SLD-0
  6
Continuous
 62
   179
100
AcDbLine
 10
130.7964324951
 20
111.320602417
 30
0.0
 11
130.7964324951
 21
108.3706130981
 31
0.0
  0
LINE
  5
103
330
1F
100
AcDbEntity
  8
SLD-0
  6
Continuous
 62
   179
100
AcDbLine
 10
128.4622971442
 20
112.7954731277
 30
0.0
 11
130.7964437549
 21
111.320599529
 31
0.0
  0
LINE
  5
104
330
1F
100
AcDbEntity
  8
SLD-0
  6
Continuous
 62
   179
100
AcDbLine
 10
14.849999997
 20
12.0
 30
0.0
 11
195.25
 21
12.0
 31
0.0
  0
LINE
  5
105
330
1F
100
AcDbEntity
  8
SLD-0
  6
Continuous
 62
   179
100
AcDbLine
 10
195.25
 20
285.0
 30
0.0
 11
195.25
 21
12.0
 31
0.0
  0
LINE
  5
106
330
1F
100
AcDbEntity
  8
SLD-0
  6
Continuous
 62
   179
100
AcDbLine
 10
14.849999997
 20
285.0
 30
0.0
 11
195.25
 21
285.0
 31
0.0
  0
LINE
  5
107
330
1F
100
AcDbEntity
  8
SLD-0
  6
Continuous
 62
   179
100
AcDbLine
 10
126.75
 20
50.5
 30
0.0
 11
126.75
 21
12.0
 31
0.0
  0
LINE
  5
108
330
1F
100
AcDbEntity
  8
SLD-0
  6
Continuous
 62
   179
100
AcDbLine
 10
126.75
 20
24.5
 30
0.0
 11
195.25
 21
24.5
 31
0.0
  0
LINE
  5
109
330
1F
100
AcDbEntity
  8
SLD-0
  6
Continuous
 62
   179
100
AcDbLine
 10
126.75
 20
37.0
 30
0.0
 11
195.25
 21
37.0
 31
0.0
  0
LINE
  5
10A
330
1F
100
AcDbEntity
  8
SLD-0
  6
Continuous
 62
   179
100
AcDbLine
 10
126.75
 20
50.5
 30
0.0
 11
195.25
 21
50.5
 31
0.0
  0
LINE
  5
10B
330
1F
100
AcDbEntity
  8
SLD-0
  6
Continuous
 62
   179
100
AcDbLine
 10
15.049999997
 20
284.799987793
 30
0.0
 11
195.049999997
 21
284.799987793
 31
0.0
  0
LINE
  5
10C
330
1F
100
AcDbEntity
  8
SLD-0
  6
Continuous
 62
   179
100
AcDbLine
 10
15.049999997
 20
12.200000003
 30
0.0
 11
195.049999997
 21
12.200000003
 31
0.0
  0
LINE
  5
10D
330
1F
100
AcDbEntity
  8
SLD-0
  6
Continuous
 62
   179
100
AcDbLine
 10
195.049999997
 20
284.799987793
 30
0.0
 11
195.049999997
 21
12.200000003
 31
0.0
  0
LINE
  5
10E
330
1F
100
AcDbEntity
  8
SLD-0
  6
Continuous
 62
   179
100
AcDbLine
 10
15.049999997
 20
284.799987793
 30
0.0
 11
15.049999997
 21
12.200000003
 31
0.0
  0
LINE
  5
10F
330
1F
100
AcDbEntity
  8
SLD-0
  6
Continuous
 62
   179
100
AcDbLine
 10
14.849999997
 20
285.0
 30
0.0
 11
14.849999997
 21
12.0
 31
0.0
  0
CIRCLE
  5
110
330
1F
100
AcDbEntity
  8
SLD-0
  6
Continuous
 62
   179
100
AcDbCircle
 10
63.1373291016
 20
205.8454742432
 30
0.0
 40
2.75
  0
CIRCLE
  5
111
330
1F
100
AcDbEntity
  8
SLD-0
  6
Continuous
 62
   179
100
AcDbCircle
 10
63.1373291016
 20
205.8454742432
 30
0.0
 40
1.25
  0
ARC
  5
112
330
1F
100
AcDbEntity
  8
SLD-0
  6
Continuous
 62
   179
100
AcDbCircle
 10
60.8873291016
 20
237.4187927246
 30
0.0
 40
0.5000000000000284
100
AcDbArc
 50
180.0
 51
270.0
  0
ARC
  5
113
330
1F
100
AcDbEntity
  8
SLD-0
  6
Continuous
 62
   179
100
AcDbCircle
 10
65.3873291016
 20
237.4187927246
 30
0.0
 40
0.5000000000000284
100
AcDbArc
 50
270.0
 51
0.0
  0
ARC
  5
114
330
1F
100
AcDbEntity
  8
SLD-0
  6
Continuous
 62
   179
100
AcDbCircle
 10
126.5623168945
 20
208.0954742432
 30
0.0
 40
0.5
100
AcDbArc
 50
90.0
 51
180.0
  0
ARC
  5
115
330
1F
100
AcDbEntity
  8
SLD-0
  6
Continuous
 62
   179
100
AcDbCircle
 10
126.5623168945
 20
203.5954742432
 30
0.0
 40
0.5
100
AcDbArc
 50
180.0
 51
270.0
  0
ARC
  5
116
330
1F
100
AcDbEntity
  8
SLD-0
  6
Continuous
 62
   179
100
AcDbCircle
 10
128.4477386475
 20
208.2270507813
 30
0.0
 40
1.385416626930238
100
AcDbArc
 50
180.0
 51
214.9609703135
  0
ARC
  5
117
330
1F
100
AcDbEntity
  8
SLD-0
  6
Continuous
 62
   179
100
AcDbCircle
 10
61.7623291016
 20
241.8250427246
 30
0.0
 40
3.906250000000004
100
AcDbArc
 50
269.9999974955
 51
290.6096929375
  0
ARC
  5
118
330
1F
100
AcDbEntity
  8
SLD-0
  6
Continuous
 62
   179
100
AcDbCircle
 10
64.5123291016
 20
241.8250427246
 30
0.0
 40
3.906250000000004
100
AcDbArc
 50
249.3903070625
 51
269.9999974955
  0
ARC
  5
119
330
1F
100
AcDbEntity
  8
SLD-0
  6
Continuous
 62
   179
100
AcDbCircle
 10
56.5788574219
 20
210.8454742432
 30
0.0
 40
2.000000000000028
100
AcDbArc
 50
90.0
 51
161.5650512315
  0
ARC
  5
11A
330
1F
100
AcDbEntity
  8
SLD-0
  6
Continuous
 62
   179
100
AcDbCircle
 10
63.137332204
 20
194.345477413
 30
0.0
 40
11.50000000000001
100
AcDbArc
 50
225.6159051366
 51
314.3841000997
  0
ARC
  5
11B
330
1F
100
AcDbEntity
  8
SLD-0
  6
Continuous
 62
   179
100
AcDbCircle
 10
62.0881347656
 20
193.2734832764
 30
0.0
 40
10.00000443544041
100
AcDbArc
 50
152.732182295
 51
225.6159297787
  0
ARC
  5
11C
330
1F
100
AcDbEntity
  8
SLD-0
  6
Continuous
 62
   179
100
AcDbCircle
 10
64.1865296424
 20
193.2734832764
 30
0.0
 40
10.00000443544019
100
AcDbArc
 50
314.3840762431
 51
27.2678210064
  0
ARC
  5
11D
330
1F
100
AcDbEntity
  8
SLD-0
  6
Continuous
 62
   179
100
AcDbCircle
 10
60.8565368652
 20
208.3454742432
 30
0.0
 40
2.000000000000011
100
AcDbArc
 50
90.0
 51
152.732182295
  0
ARC
  5
11E
330
1F
100
AcDbEntity
  8
SLD-0
  6
Continuous
 62
   179
100
AcDbCircle
 10
65.4181518555
 20
208.3454742432
 30
0.0
 40
2.000000000000004
100
AcDbArc
 50
27.2678210064
 51
90.0
  0
ARC
  5
11F
330
1F
100
AcDbEntity
  8
SLD-0
  6
Continuous
 62
   179
100
AcDbCircle
 10
66.7626338546
 20
212.0454871825
 30
0.0
 40
0.7999991663601649
100
AcDbArc
 50
300.0002435127
 51
90.0000025045
  0
ARC
  5
120
330
1F
100
AcDbEntity
  8
SLD-0
  6
Continuous
 62
   179
100
AcDbCircle
 10
59.5120239258
 20
212.0454864502
 30
0.0
 40
0.8000000119209402
100
AcDbArc
 50
90.0000025045
 51
240.0000066786
  0
CIRCLE
  5
121
330
1F
100
AcDbEntity
  8
SLD-0
  6
Continuous
 62
   179
100
AcDbCircle
 10
63.1373291016
 20
205.8454742432
 30
0.0
 40
3.75
  0
ARC
  5
122
330
1F
100
AcDbEntity
  8
SLD-0
  6
Continuous
 62
   179
100
AcDbCircle
 10
69.6958007813
 20
210.8454742432
 30
0.0
 40
2.000000000000028
100
AcDbArc
 50
18.4349486548
 51
90.0
  0
CIRCLE
  5
123
330
1F
100
AcDbEntity
  8
SLD-0
  6
Continuous
 62
   179
100
AcDbCircle
 10
63.1373291016
 20
248.3187866211
 30
0.0
 40
18.0
  0
ARC
  5
124
330
1F
100
AcDbEntity
  8
SLD-0
  6
Continuous
 62
   179
100
AcDbCircle
 10
63.1373291016
 20
248.3187866211
 30
0.0
 40
16.49999647350441
100
AcDbArc
 50
158.6763089563
 51
201.3236910437
  0
ARC
  5
125
330
1F
100
AcDbEntity
  8
SLD-0
  6
Continuous
 62
   179
100
AcDbCircle
 10
63.1373291016
 20
248.3187866211
 30
0.0
 40
15.00000000000001
100
AcDbArc
 50
165.5224901574
 51
194.4775062001
  0
ARC
  5
126
330
1F
100
AcDbEntity
  8
SLD-0
  6
Continuous
 62
   179
100
AcDbCircle
 10
63.1373291016
 20
248.3187866211
 30
0.0
 40
16.49999647350431
100
AcDbArc
 50
338.6763089563
 51
21.3236910437
  0
ARC
  5
127
330
1F
100
AcDbEntity
  8
SLD-0
  6
Continuous
 62
   179
100
AcDbCircle
 10
63.1373291016
 20
248.3187866211
 30
0.0
 40
15.00000000000001
100
AcDbArc
 50
345.5224902711
 51
14.4775114365
  0
ARC
  5
128
330
1F
100
AcDbEntity
  8
SLD-0
  6
Continuous
 62
   179
100
AcDbCircle
 10
63.1373291016
 20
241.9490814209
 30
0.0
 40
11.63029766082766
100
AcDbArc
 50
210.4263977056
 51
329.5736007006
  0
ARC
  5
129
330
1F
100
AcDbEntity
  8
SLD-0
  6
Continuous
 62
   179
100
AcDbCircle
 10
54.4021911621
 20
236.8187866211
 30
0.0
 40
1.500000000000014
100
AcDbArc
 50
90.0
 51
210.4263940631
  0
ARC
  5
12A
330
1F
100
AcDbEntity
  8
SLD-0
  6
Continuous
 62
   179
100
AcDbCircle
 10
71.8724975586
 20
236.8187866211
 30
0.0
 40
1.5
100
AcDbArc
 50
329.5736007006
 51
90.0
  0
ARC
  5
12B
330
1F
100
AcDbEntity
  8
SLD-0
  6
Continuous
 62
   179
100
AcDbCircle
 10
54.4021911621
 20
259.8187866211
 30
0.0
 40
1.50000000000005
100
AcDbArc
 50
149.5736022944
 51
270.0
  0
ARC
  5
12C
330
1F
100
AcDbEntity
  8
SLD-0
  6
Continuous
 62
   179
100
AcDbCircle
 10
63.1373291016
 20
254.6884918213
 30
0.0
 40
11.63029766082761
100
AcDbArc
 50
30.4263992994
 51
149.5736022944
  0
ARC
  5
12D
330
1F
100
AcDbEntity
  8
SLD-0
  6
Continuous
 62
   179
100
AcDbCircle
 10
71.8724975586
 20
259.8187866211
 30
0.0
 40
1.500000000000006
100
AcDbArc
 50
270.0
 51
30.4263992994
  0
ARC
  5
12E
330
1F
100
AcDbEntity
  8
SLD-0
  6
Continuous
 62
   179
100
AcDbCircle
 10
103.5451820516
 20
202.1235647325
 30
0.0
 40
24.99999520444261
100
AcDbArc
 50
309.5450902871
 51
343.0747560873
  0
ARC
  5
12F
330
1F
100
AcDbEntity
  8
SLD-0
  6
Continuous
 62
   179
100
AcDbCircle
 10
171.379447937
 20
202.1235656738
 30
0.0
 40
25.00000128266979
100
AcDbArc
 50
196.9252388223
 51
230.4548962296
  0
ARC
  5
130
330
1F
100
AcDbEntity
  8
SLD-0
  6
Continuous
 62
   179
100
AcDbCircle
 10
63.1373291016
 20
248.3187866211
 30
0.0
 40
9.999999999999996
100
AcDbArc
 50
216.8699025459
 51
323.1300992753
  0
ARC
  5
131
330
1F
100
AcDbEntity
  8
SLD-0
  6
Continuous
 62
   179
100
AcDbCircle
 10
59.2435913086
 20
239.8187866211
 30
0.0
 40
0.500000000000028
100
AcDbArc
 50
90.0
 51
232.696048267
  0
ARC
  5
132
330
1F
100
AcDbEntity
  8
SLD-0
  6
Continuous
 62
   179
100
AcDbCircle
 10
67.0310668945
 20
239.8187866211
 30
0.0
 40
0.5000000000000316
100
AcDbArc
 50
307.3039499118
 51
90.0
  0
ARC
  5
133
330
1F
100
AcDbEntity
  8
SLD-0
  6
Continuous
 62
   179
100
AcDbCircle
 10
59.2435913086
 20
256.8187866211
 30
0.0
 40
0.5
100
AcDbArc
 50
127.3039480905
 51
270.0
  0
ARC
  5
134
330
1F
100
AcDbEntity
  8
SLD-0
  6
Continuous
 62
   179
100
AcDbCircle
 10
63.1373291016
 20
248.3187866211
 30
0.0
 40
9.999999999999996
100
AcDbArc
 50
36.8698973096
 51
143.1300974541
  0
ARC
  5
135
330
1F
100
AcDbEntity
  8
SLD-0
  6
Continuous
 62
   179
100
AcDbCircle
 10
67.0310668945
 20
256.8187866211
 30
0.0
 40
0.500000000000009
100
AcDbArc
 50
270.0
 51
52.6960500882
  0
ARC
  5
136
330
1F
100
AcDbEntity
  8
SLD-0
  6
HIDDEN
 62
   179
100
AcDbCircle
 10
127.8768920898
 20
208.2270507813
 30
0.0
 40
1.385416626930238
100
AcDbArc
 50
325.0396596578
 51
0.0
  0
ARC
  5
137
330
1F
100
AcDbEntity
  8
SLD-0
  6
HIDDEN
 62
   179
100
AcDbCircle
 10
124.0956420898
 20
205.8454742432
 30
0.0
 40
5.166662488612334
100
AcDbArc
 50
342.1035005748
 51
17.8964994252
  0
ARC
  5
138
330
1F
100
AcDbEntity
  8
SLD-0
  6
HIDDEN
 62
   179
100
AcDbCircle
 10
127.8768920898
 20
203.4638977051
 30
0.0
 40
1.385416626930244
100
AcDbArc
 50
360.0
 51
34.9603471724
  0
ARC
  5
139
330
1F
100
AcDbEntity
  8
SLD-0
  6
Continuous
 62
   179
100
AcDbCircle
 10
128.4477391362
 20
203.4638973634
 30
0.0
 40
1.385416030608125
100
AcDbArc
 50
145.0389983032
 51
180.0
  0
ARC
  5
13A
330
1F
100
AcDbEntity
  8
SLD-0
  6
Continuous
 62
   179
100
AcDbCircle
 10
132.2289871053
 20
205.8454747412
 30
0.0
 40
5.166668128283106
100
AcDbArc
 50
162.1035265742
 51
197.8964803326
  0
ARC
  5
13B
330
1F
100
AcDbEntity
  8
SLD-0
  6
Continuous
 62
   179
100
AcDbCircle
 10
51.5183750887
 20
251.3187857157
 30
0.0
 40
2.99999637832062
100
AcDbArc
 50
90.0000025045
 51
165.5224638119
  0
ARC
  5
13C
330
1F
100
AcDbEntity
  8
SLD-0
  6
Continuous
 62
   179
100
AcDbCircle
 10
51.5183750887
 20
245.3187875265
 30
0.0
 40
2.999996378320435
100
AcDbArc
 50
194.4775179757
 51
269.9999974955
  0
ARC
  5
13D
330
1F
100
AcDbEntity
  8
SLD-0
  6
Continuous
 62
   179
100
AcDbCircle
 10
74.7562831144
 20
245.3187875265
 30
0.0
 40
2.999996378320629
100
AcDbArc
 50
269.9999974955
 51
345.5224643803
  0
ARC
  5
13E
330
1F
100
AcDbEntity
  8
SLD-0
  6
Continuous
 62
   179
100
AcDbCircle
 10
74.7562831144
 20
251.3187857157
 30
0.0
 40
2.99999637832078
100
AcDbArc
 50
14.4775441574
 51
90.0000025045
  0
ARC
  5
13F
330
1F
100
AcDbEntity
  8
SLD-0
  6
Continuous
 62
   179
100
AcDbCircle
 10
57.5663452148
 20
112.8454818726
 30
0.0
 40
2.0
100
AcDbArc
 50
0.0
 51
90.0
  0
ARC
  5
140
330
1F
100
AcDbEntity
  8
SLD-0
  6
Continuous
 62
   179
100
AcDbCircle
 10
143.0332794189
 20
112.8454818726
 30
0.0
 40
2.0
100
AcDbArc
 50
90.0
 51
180.0
  0
ARC
  5
141
330
1F
100
AcDbEntity
  8
SLD-0
  6
Continuous
 62
   179
100
AcDbCircle
 10
157.1045371998
 20
113.7039495057
 30
0.0
 40
2.00000093054361
100
AcDbArc
 50
145.1963471802
 51
180.0
  0
CIRCLE
  5
142
330
1F
100
AcDbEntity
  8
SLD-0
  6
Continuous
 62
   179
100
AcDbCircle
 10
63.1373291016
 20
52.7118377686
 30
0.0
 40
18.0
  0
ARC
  5
143
330
1F
100
AcDbEntity
  8
SLD-0
  6
Continuous
 62
   179
100
AcDbCircle
 10
63.1373291016
 20
52.7118377686
 30
0.0
 40
16.5
100
AcDbArc
 50
339.6200098375
 51
110.3800370632
  0
ARC
  5
144
330
1F
100
AcDbEntity
  8
SLD-0
  6
Continuous
 62
   179
100
AcDbCircle
 10
63.1373291016
 20
52.7118377686
 30
0.0
 40
16.50000000000001
100
AcDbArc
 50
159.6199909408
 51
290.3800557325
  0
CIRCLE
  5
145
330
1F
100
AcDbEntity
  8
SLD-0
  6
Continuous
 62
   179
100
AcDbCircle
 10
63.1373291016
 20
40.7118225098
 30
0.0
 40
2.0
  0
CIRCLE
  5
146
330
1F
100
AcDbEntity
  8
SLD-0
  6
Continuous
 62
   179
100
AcDbCircle
 10
63.1373291016
 20
40.7118225098
 30
0.0
 40
1.5
  0
CIRCLE
  5
147
330
1F
100
AcDbEntity
  8
SLD-0
  6
Continuous
 62
   179
100
AcDbCircle
 10
63.1373291016
 20
64.7118377686
 30
0.0
 40
2.0
  0
CIRCLE
  5
148
330
1F
100
AcDbEntity
  8
SLD-0
  6
Continuous
 62
   179
100
AcDbCircle
 10
63.1373291016
 20
64.7118377686
 30
0.0
 40
1.5
  0
CIRCLE
  5
149
330
1F
100
AcDbEntity
  8
SLD-0
  6
Continuous
 62
   179
100
AcDbCircle
 10
63.1373291016
 20
52.7118377686
 30
0.0
 40
4.863999843597412
  0
CIRCLE
  5
14A
330
1F
100
AcDbEntity
  8
SLD-0
  6
Continuous
 62
   179
100
AcDbCircle
 10
63.1373291016
 20
52.7118377686
 30
0.0
 40
4.282999992370606
  0
ARC
  5
14B
330
1F
100
AcDbEntity
  8
SLD-0
  6
Continuous
 62
   179
100
AcDbCircle
 10
78.6668392855
 20
112.0087336986
 30
0.0
 40
2.374983943657345
100
AcDbArc
 50
100.2969920142
 51
122.7969920142
  0
ARC
  5
14C
330
1F
100
AcDbEntity
  8
SLD-0
  6
Continuous
 62
   179
100
AcDbCircle
 10
79.4614864203
 20
111.6771909697
 30
0.0
 40
3.122539716710474
100
AcDbArc
 50
131.7954839415
 51
154.2954839415
  0
ARC
  5
14D
330
1F
100
AcDbEntity
  8
SLD-0
  6
Continuous
 62
   179
100
AcDbCircle
 10
80.0687687343
 20
111.0667871353
 30
0.0
 40
3.944902484007654
100
AcDbArc
 50
150.1291846679
 51
172.6291846679
  0
ARC
  5
14E
330
1F
100
AcDbEntity
  8
SLD-0
  6
Continuous
 62
   179
100
AcDbCircle
 10
80.3962330001
 20
110.2704506457
 30
0.0
 40
4.435308462568827
100
AcDbArc
 50
162.9233767636
 51
185.4233767636
  0
ARC
  5
14F
330
1F
100
AcDbEntity
  8
SLD-0
  6
Continuous
 62
   179
100
AcDbCircle
 10
80.3940257518
 20
109.4094165128
 30
0.0
 40
4.435308462568872
100
AcDbArc
 50
174.282870108
 51
196.782870108
  0
ARC
  5
150
330
1F
100
AcDbEntity
  8
SLD-0
  6
Continuous
 62
   179
100
AcDbCircle
 10
80.0624830229
 20
108.614769378
 30
0.0
 40
3.944902484007673
100
AcDbArc
 50
187.0770622037
 51
209.5770622037
  0
ARC
  5
151
330
1F
100
AcDbEntity
  8
SLD-0
  6
Continuous
 62
   179
100
AcDbCircle
 10
79.4520791885
 20
108.007487064
 30
0.0
 40
3.122539716710604
100
AcDbArc
 50
205.4107629301
 51
227.9107629301
  0
ARC
  5
152
330
1F
100
AcDbEntity
  8
SLD-0
  6
Continuous
 62
   179
100
AcDbCircle
 10
78.6557426989
 20
107.6800227982
 30
0.0
 40
2.374983943657216
100
AcDbArc
 50
236.9092548574
 51
259.4092548574
  0
ARC
  5
153
330
1F
100
AcDbEntity
  8
SLD-0
  6
Continuous
 62
   179
100
AcDbCircle
 10
77.794708566
 20
107.6822300465
 30
0.0
 40
2.374983943657314
100
AcDbArc
 50
280.2969920142
 51
302.7969920142
  0
ARC
  5
154
330
1F
100
AcDbEntity
  8
SLD-0
  6
Continuous
 62
   179
100
AcDbCircle
 10
77.0000614312
 20
108.0137727754
 30
0.0
 40
3.122539716710627
100
AcDbArc
 50
311.7954839415
 51
334.2954839415
  0
ARC
  5
155
330
1F
100
AcDbEntity
  8
SLD-0
  6
Continuous
 62
   179
100
AcDbCircle
 10
76.3927791173
 20
108.6241766099
 30
0.0
 40
3.944902484007634
100
AcDbArc
 50
330.1291846679
 51
352.6291846679
  0
ARC
  5
156
330
1F
100
AcDbEntity
  8
SLD-0
  6
Continuous
 62
   179
100
AcDbCircle
 10
76.0653148514
 20
109.4205130994
 30
0.0
 40
4.435308462568817
100
AcDbArc
 50
342.9233767636
 51
5.4233767636
  0
ARC
  5
157
330
1F
100
AcDbEntity
  8
SLD-0
  6
Continuous
 62
   179
100
AcDbCircle
 10
76.0675220997
 20
110.2815472323
 30
0.0
 40
4.435308462568816
100
AcDbArc
 50
354.282870108
 51
16.782870108
  0
ARC
  5
158
330
1F
100
AcDbEntity
  8
SLD-0
  6
Continuous
 62
   179
100
AcDbCircle
 10
76.3990648286
 20
111.0761943671
 30
0.0
 40
3.944902484007573
100
AcDbArc
 50
7.0770622037
 51
29.5770622037
  0
ARC
  5
159
330
1F
100
AcDbEntity
  8
SLD-0
  6
Continuous
 62
   179
100
AcDbCircle
 10
77.0094686631
 20
111.6834766811
 30
0.0
 40
3.122539716710665
100
AcDbArc
 50
25.4107629301
 51
47.9107629301
  0
ARC
  5
15A
330
1F
100
AcDbEntity
  8
SLD-0
  6
Continuous
 62
   179
100
AcDbCircle
 10
77.8058051526
 20
112.0109409469
 30
0.0
 40
2.374983943657222
100
AcDbArc
 50
56.9092548574
 51
79.4092548574
  0
ARC
  5
15B
330
1F
100
AcDbEntity
  8
SLD-0
  6
Continuous
 62
   179
100
AcDbCircle
 10
128.8634500327
 20
110.4254225913
 30
0.0
 40
3.921756384897167
100
AcDbArc
 50
91.6855826635
 51
114.1855826635
  0
ARC
  5
15C
330
1F
100
AcDbEntity
  8
SLD-0
  6
Continuous
 62
   179
100
AcDbCircle
 10
129.0766026797
 20
110.337131874
 30
0.0
 40
4.092685917562962
100
AcDbArc
 50
116.4018540872
 51
138.9018540872
  0
ARC
  5
15D
330
1F
100
AcDbEntity
  8
SLD-0
  6
Continuous
 62
   179
100
AcDbCircle
 10
129.2397426528
 20
110.1739919009
 30
0.0
 40
4.32289440959515
100
AcDbArc
 50
138.6937708955
 51
161.1937708955
  0
ARC
  5
15E
330
1F
100
AcDbEntity
  8
SLD-0
  6
Continuous
 62
   179
100
AcDbCircle
 10
129.3280333701
 20
109.9608392539
 30
0.0
 40
4.478540047140911
100
AcDbArc
 50
158.9759770134
 51
181.4759770134
  0
ARC
  5
15F
330
1F
100
AcDbEntity
  8
SLD-0
  6
Continuous
 62
   179
100
AcDbCircle
 10
129.3280333701
 20
109.7301244913
 30
0.0
 40
4.478540047140879
100
AcDbArc
 50
178.5240229866
 51
201.0240229866
  0
ARC
  5
160
330
1F
100
AcDbEntity
  8
SLD-0
  6
Continuous
 62
   179
100
AcDbCircle
 10
129.2397426528
 20
109.5169718442
 30
0.0
 40
4.3228944095951
100
AcDbArc
 50
198.8062291045
 51
221.3062291045
  0
ARC
  5
161
330
1F
100
AcDbEntity
  8
SLD-0
  6
Continuous
 62
   179
100
AcDbCircle
 10
129.0766026797
 20
109.3538318711
 30
0.0
 40
4.09268591756295
100
AcDbArc
 50
221.0981459128
 51
243.5981459128
  0
ARC
  5
162
330
1F
100
AcDbEntity
  8
SLD-0
  6
Continuous
 62
   179
100
AcDbCircle
 10
128.8634500327
 20
109.2655411538
 30
0.0
 40
3.921756384897185
100
AcDbArc
 50
245.8144173365
 51
268.3144173365
  0
ARC
  5
163
330
1F
100
AcDbEntity
  8
SLD-0
  6
Continuous
 62
   179
100
AcDbCircle
 10
128.6327352701
 20
109.2655411538
 30
0.0
 40
3.921756384897189
100
AcDbArc
 50
271.6855826635
 51
294.1855826635
  0
ARC
  5
164
330
1F
100
AcDbEntity
  8
SLD-0
  6
Continuous
 62
   179
100
AcDbCircle
 10
128.419582623
 20
109.3538318711
 30
0.0
 40
4.092685917563004
100
AcDbArc
 50
296.4018540872
 51
318.9018540872
  0
ARC
  5
165
330
1F
100
AcDbEntity
  8
SLD-0
  6
Continuous
 62
   179
100
AcDbCircle
 10
128.2564426499
 20
109.5169718442
 30
0.0
 40
4.322894409595063
100
AcDbArc
 50
318.6937708955
 51
341.1937708955
  0
ARC
  5
166
330
1F
100
AcDbEntity
  8
SLD-0
  6
Continuous
 62
   179
100
AcDbCircle
 10
128.1681519326
 20
109.7301244913
 30
0.0
 40
4.478540047140878
100
AcDbArc
 50
338.9759770134
 51
1.4759770134
  0
ARC
  5
167
330
1F
100
AcDbEntity
  8
SLD-0
  6
Continuous
 62
   179
100
AcDbCircle
 10
128.1681519326
 20
109.9608392539
 30
0.0
 40
4.478540047140909
100
AcDbArc
 50
358.5240229866
 51
21.0240229866
  0
ARC
  5
168
330
1F
100
AcDbEntity
  8
SLD-0
  6
Continuous
 62
   179
100
AcDbCircle
 10
128.2564426499
 20
110.1739919009
 30
0.0
 40
4.322894409595113
100
AcDbArc
 50
18.8062291045
 51
41.3062291045
  0
ARC
  5
169
330
1F
100
AcDbEntity
  8
SLD-0
  6
Continuous
 62
   179
100
AcDbCircle
 10
128.419582623
 20
110.337131874
 30
0.0
 40
4.092685917563016
100
AcDbArc
 50
41.0981459128
 51
63.5981459128
  0
ARC
  5
16A
330
1F
100
AcDbEntity
  8
SLD-0
  6
Continuous
 62
   179
100
AcDbCircle
 10
128.6327352701
 20
110.4254225913
 30
0.0
 40
3.921756384897168
100
AcDbArc
 50
65.8144173365
 51
88.3144173365
  0
ARC
  5
16B
330
1F
100
AcDbEntity
  8
SLD-0
  6
Continuous
 62
   179
100
AcDbCircle
 10
78.7972434746
 20
111.2643381813
 30
0.0
 40
1.556933874751455
100
AcDbArc
 50
100.4438705278
 51
122.9438705278
  0
ARC
  5
16C
330
1F
100
AcDbEntity
  8
SLD-0
  6
Continuous
 62
   179
100
AcDbCircle
 10
79.3187343465
 20
111.0483295895
 30
0.0
 40
2.046998303336735
100
AcDbArc
 50
131.9423632283
 51
154.4423632283
  0
ARC
  5
16D
330
1F
100
AcDbEntity
  8
SLD-0
  6
Continuous
 62
   179
100
AcDbCircle
 10
79.7178661801
 20
110.6491977559
 30
0.0
 40
2.586102862102302
100
AcDbArc
 50
150.2760629379
 51
172.7760629379
  0
ARC
  5
16E
330
1F
100
AcDbEntity
  8
SLD-0
  6
Continuous
 62
   179
100
AcDbCircle
 10
79.9338747719
 20
110.127706884
 30
0.0
 40
2.907591267164025
100
AcDbArc
 50
163.0702538868
 51
185.5702538868
  0
ARC
  5
16F
330
1F
100
AcDbEntity
  8
SLD-0
  6
Continuous
 62
   179
100
AcDbCircle
 10
79.9338747719
 20
109.5632492317
 30
0.0
 40
2.907591267164056
100
AcDbArc
 50
174.4297461132
 51
196.9297461133
  0
ARC
  5
170
330
1F
100
AcDbEntity
  8
SLD-0
  6
Continuous
 62
   179
100
AcDbCircle
 10
79.7178661801
 20
109.0417583598
 30
0.0
 40
2.586102862102258
100
AcDbArc
 50
187.2239370621
 51
209.7239370621
  0
ARC
  5
171
330
1F
100
AcDbEntity
  8
SLD-0
  6
Continuous
 62
   179
100
AcDbCircle
 10
79.3187343465
 20
108.6426265262
 30
0.0
 40
2.046998303336686
100
AcDbArc
 50
205.5576367717
 51
228.0576367717
  0
ARC
  5
172
330
1F
100
AcDbEntity
  8
SLD-0
  6
Continuous
 62
   179
100
AcDbCircle
 10
78.7972434746
 20
108.4266179344
 30
0.0
 40
1.556933874751467
100
AcDbArc
 50
237.0561294722
 51
259.5561294722
  0
ARC
  5
173
330
1F
100
AcDbEntity
  8
SLD-0
  6
Continuous
 62
   179
100
AcDbCircle
 10
78.2327858223
 20
108.4266179344
 30
0.0
 40
1.556933874751463
100
AcDbArc
 50
280.4438705278
 51
302.9438705278
  0
ARC
  5
174
330
1F
100
AcDbEntity
  8
SLD-0
  6
Continuous
 62
   179
100
AcDbCircle
 10
77.7112949504
 20
108.6426265262
 30
0.0
 40
2.046998303336647
100
AcDbArc
 50
311.9423632283
 51
334.4423632283
  0
ARC
  5
175
330
1F
100
AcDbEntity
  8
SLD-0
  6
Continuous
 62
   179
100
AcDbCircle
 10
77.3121631168
 20
109.0417583598
 30
0.0
 40
2.586102862102282
100
AcDbArc
 50
330.2760629379
 51
352.7760629379
  0
ARC
  5
176
330
1F
100
AcDbEntity
  8
SLD-0
  6
Continuous
 62
   179
100
AcDbCircle
 10
77.096154525
 20
109.5632492317
 30
0.0
 40
2.907591267164056
100
AcDbArc
 50
343.0702538868
 51
5.5702538868
  0
ARC
  5
177
330
1F
100
AcDbEntity
  8
SLD-0
  6
Continuous
 62
   179
100
AcDbCircle
 10
77.096154525
 20
110.127706884
 30
0.0
 40
2.907591267164025
100
AcDbArc
 50
354.4297461133
 51
16.9297461132
  0
ARC
  5
178
330
1F
100
AcDbEntity
  8
SLD-0
  6
Continuous
 62
   179
100
AcDbCircle
 10
77.3121631168
 20
110.6491977559
 30
0.0
 40
2.586102862102242
100
AcDbArc
 50
7.2239370621
 51
29.7239370621
  0
ARC
  5
179
330
1F
100
AcDbEntity
  8
SLD-0
  6
Continuous
 62
   179
100
AcDbCircle
 10
77.7112949504
 20
111.0483295895
 30
0.0
 40
2.046998303336763
100
AcDbArc
 50
25.5576367717
 51
48.0576367717
  0
ARC
  5
17A
330
1F
100
AcDbEntity
  8
SLD-0
  6
Continuous
 62
   179
100
AcDbCircle
 10
78.2327858223
 20
111.2643381813
 30
0.0
 40
1.556933874751449
100
AcDbArc
 50
57.0561294722
 51
79.5561294722
  0
ARC
  5
17B
330
1F
100
AcDbEntity
  8
SLD-0
  6
Continuous
 62
   179
100
AcDbCircle
 10
128.659615226
 20
110.2256616666
 30
0.0
 40
2.570929065877247
100
AcDbArc
 50
91.6855838448
 51
114.1855838448
  0
ARC
  5
17C
330
1F
100
AcDbEntity
  8
SLD-0
  6
Continuous
 62
   179
100
AcDbCircle
 10
128.7993487194
 20
110.1677821585
 30
0.0
 40
2.682982947311992
100
AcDbArc
 50
116.4018567059
 51
138.9018567059
  0
ARC
  5
17D
330
1F
100
AcDbEntity
  8
SLD-0
  6
Continuous
 62
   179
100
AcDbCircle
 10
128.9062961051
 20
110.0608347728
 30
0.0
 40
2.833897501472949
100
AcDbArc
 50
138.6937732428
 51
161.1937732428
  0
ARC
  5
17E
330
1F
100
AcDbEntity
  8
SLD-0
  6
Continuous
 62
   179
100
AcDbCircle
 10
128.9641756131
 20
109.9211012795
 30
0.0
 40
2.935931927454791
100
AcDbArc
 50
158.9759779193
 51
181.4759779193
  0
ARC
  5
17F
330
1F
100
AcDbEntity
  8
SLD-0
  6
Continuous
 62
   179
100
AcDbCircle
 10
128.9641756131
 20
109.7698548362
 30
0.0
 40
2.935931927454849
100
AcDbArc
 50
178.5240220807
 51
201.0240220807
  0
ARC
  5
180
330
1F
100
AcDbEntity
  8
SLD-0
  6
Continuous
 62
   179
100
AcDbCircle
 10
128.9062961051
 20
109.6301213429
 30
0.0
 40
2.833897501472956
100
AcDbArc
 50
198.8062267573
 51
221.3062267573
  0
ARC
  5
181
330
1F
100
AcDbEntity
  8
SLD-0
  6
Continuous
 62
   179
100
AcDbCircle
 10
128.7993487194
 20
109.5231739572
 30
0.0
 40
2.682982947311925
100
AcDbArc
 50
221.0981432941
 51
243.5981432941
  0
ARC
  5
182
330
1F
100
AcDbEntity
  8
SLD-0
  6
Continuous
 62
   179
100
AcDbCircle
 10
128.659615226
 20
109.4652944491
 30
0.0
 40
2.570929065877247
100
AcDbArc
 50
245.8144161552
 51
268.3144161552
  0
ARC
  5
183
330
1F
100
AcDbEntity
  8
SLD-0
  6
Continuous
 62
   179
100
AcDbCircle
 10
128.5083687827
 20
109.4652944491
 30
0.0
 40
2.570929065877389
100
AcDbArc
 50
271.6855838448
 51
294.1855838448
  0
ARC
  5
184
330
1F
100
AcDbEntity
  8
SLD-0
  6
Continuous
 62
   179
100
AcDbCircle
 10
128.3686352894
 20
109.5231739572
 30
0.0
 40
2.682982947311856
100
AcDbArc
 50
296.4018567059
 51
318.9018567059
  0
ARC
  5
185
330
1F
100
AcDbEntity
  8
SLD-0
  6
Continuous
 62
   179
100
AcDbCircle
 10
128.2616879037
 20
109.6301213429
 30
0.0
 40
2.833897501472913
100
AcDbArc
 50
318.6937732428
 51
341.1937732428
  0
ARC
  5
186
330
1F
100
AcDbEntity
  8
SLD-0
  6
Continuous
 62
   179
100
AcDbCircle
 10
128.2038083957
 20
109.7698548362
 30
0.0
 40
2.935931927454891
100
AcDbArc
 50
338.9759779193
 51
1.4759779193
  0
ARC
  5
187
330
1F
100
AcDbEntity
  8
SLD-0
  6
Continuous
 62
   179
100
AcDbCircle
 10
128.2038083957
 20
109.9211012795
 30
0.0
 40
2.935931927454833
100
AcDbArc
 50
358.5240220807
 51
21.0240220807
  0
ARC
  5
188
330
1F
100
AcDbEntity
  8
SLD-0
  6
Continuous
 62
   179
100
AcDbCircle
 10
128.2616879037
 20
110.0608347728
 30
0.0
 40
2.833897501472908
100
AcDbArc
 50
18.8062267573
 51
41.3062267573
  0
ARC
  5
189
330
1F
100
AcDbEntity
  8
SLD-0
  6
Continuous
 62
   179
100
AcDbCircle
 10
128.3686352894
 20
110.1677821585
 30
0.0
 40
2.682982947311907
100
AcDbArc
 50
41.0981432941
 51
63.5981432941
  0
ARC
  5
18A
330
1F
100
AcDbEntity
  8
SLD-0
  6
Continuous
 62
   179
100
AcDbCircle
 10
128.5083687827
 20
110.2256616666
 30
0.0
 40
2.570929065877389
100
AcDbArc
 50
65.8144161552
 51
88.3144161552
  0
MTEXT
  5
18C
330
1F
100
AcDbEntity
  8
SLD-0
 62
     7
100
AcDbMText
 10
146.5820130706
 20
44.7582189641
 30
0.0
 40
4.8000001907
 41
0.0
 71
     1
 72
     1
  1
エアニッパー
  7
SLDTEXTSTYLE4
 73
     1
 44
1.0
  0
MTEXT
  5
18E
330
1F
100
AcDbEntity
  8
SLD-0
 62
     7
100
AcDbMText
 10
140.707813561
 20
32.1363718114
 30
0.0
 40
4.8000001907
 41
0.0
 71
     1
 72
     1
  1
ＧＴ－ＮＲ１０Ｌ
  7
SLDTEXTSTYLE5
 73
     1
 44
1.0
  0
MTEXT
  5
18F
330
1F
100
AcDbEntity
  8
SLD-0
 62
     7
100
AcDbMText
 10
145.7763642669
 20
19.5145246587
 30
0.0
 40
4.8000001907
 41
0.0
 71
     1
 72
     1
  1
０６００８３
  7
SLDTEXTSTYLE4
 73
     1
 44
1.0
  0
INSERT
  5
190
330
1F
100
AcDbEntity
  8
0
  6
Continuous
 62
     7
370
     0
100
AcDbBlockReference
  2
KOZU0001
 10
66.0449739764
 20
48.8126058814
 30
0.0
  0
INSERT
  5
191
330
1F
100
AcDbEntity
  8
0
  6
Continuous
 62
     7
370
     0
100
AcDbBlockReference
  2
KOZU0002
 10
64.0535190524
 20
66.4896458146
 30
0.0
  0
INSERT
  5
192
330
1F
100
AcDbEntity
  8
0
  6
Continuous
 62
     7
370
     0
100
AcDbBlockReference
  2
KOZU0003
 10
129.5465606811
 20
105.4409465937
 30
0.0
  0
ENDSEC
  0
SECTION
  2
OBJECTS
  0
DICTIONARY
  5
C
330
0
100
AcDbDictionary
281
     1
  3
ACAD_GROUP
350
D
  3
ACAD_LAYOUT
350
1A
  3
ACAD_MLINESTYLE
350
17
  3
ACAD_PLOTSETTINGS
350
19
  3
ACAD_PLOTSTYLENAME
350
E
  0
DICTIONARY
  5
D
102
{ACAD_REACTORS
330
C
102
}
330
C
100
AcDbDictionary
281
     1
  0
DICTIONARY
  5
1A
102
{ACAD_REACTORS
330
C
102
}
330
C
100
AcDbDictionary
281
     1
  3
Layout1
350
1E
  3
Layout2
350
26
  3
Model
350
22
  0
DICTIONARY
  5
17
102
{ACAD_REACTORS
330
C
102
}
330
C
100
AcDbDictionary
281
     1
  3
Standard
350
18
  0
DICTIONARY
  5
19
102
{ACAD_REACTORS
330
C
102
}
330
C
100
AcDbDictionary
281
     1
  0
ACDBDICTIONARYWDFLT
  5
E
102
{ACAD_REACTORS
330
C
102
}
330
C
100
AcDbDictionary
281
     1
  3
Normal
350
F
100
AcDbDictionaryWithDefault
340
F
  0
LAYOUT
  5
1E
102
{ACAD_REACTORS
330
1A
102
}
330
1A
100
AcDbPlotSettings
  1

  2

  4

  6

 40
0.0
 41
0.0
 42
0.0
 43
0.0
 44
0.0
 45
0.0
 46
0.0
 47
0.0
 48
0.0
 49
0.0
140
0.0
141
0.0
142
1.0
143
1.0
 70
   688
 72
     0
 73
     0
 74
     5
  7

 75
    16
147
1.0
148
0.0
149
0.0
100
AcDbLayout
  1
Layout1
 70
     1
 71
     1
 10
0.0
 20
0.0
 11
0.0
 21
0.0
 12
0.0
 22
0.0
 32
0.0
 14
0.0
 24
0.0
 34
0.0
 15
0.0
 25
0.0
 35
0.0
146
0.0
 13
0.0
 23
0.0
 33
0.0
 16
1.0
 26
0.0
 36
0.0
 17
0.0
 27
1.0
 37
0.0
 76
     0
330
1B
  0
LAYOUT
  5
26
102
{ACAD_REACTORS
330
1A
102
}
330
1A
100
AcDbPlotSettings
  1

  2

  4

  6

 40
0.0
 41
0.0
 42
0.0
 43
0.0
 44
0.0
 45
0.0
 46
0.0
 47
0.0
 48
0.0
 49
0.0
140
0.0
141
0.0
142
1.0
143
1.0
 70
   688
 72
     0
 73
     0
 74
     5
  7

 75
    16
147
1.0
148
0.0
149
0.0
100
AcDbLayout
  1
Layout2
 70
     1
 71
     2
 10
0.0
 20
0.0
 11
0.0
 21
0.0
 12
0.0
 22
0.0
 32
0.0
 14
0.0
 24
0.0
 34
0.0
 15
0.0
 25
0.0
 35
0.0
146
0.0
 13
0.0
 23
0.0
 33
0.0
 16
1.0
 26
0.0
 36
0.0
 17
0.0
 27
1.0
 37
0.0
 76
     0
330
23
  0
LAYOUT
  5
22
102
{ACAD_REACTORS
330
1A
102
}
330
1A
100
AcDbPlotSettings
  1

  2

  4

  6

 40
0.0
 41
0.0
 42
0.0
 43
0.0
 44
0.0
 45
0.0
 46
0.0
 47
0.0
 48
0.0
 49
0.0
140
0.0
141
0.0
142
1.0
143
1.0
 70
  1712
 72
     0
 73
     0
 74
     0
  7

 75
     0
147
1.0
148
0.0
149
0.0
100
AcDbLayout
  1
Model
 70
     1
 71
     0
 10
0.0
 20
0.0
 11
0.0
 21
0.0
 12
0.0
 22
0.0
 32
0.0
 14
0.0
 24
0.0
 34
0.0
 15
210.0
 25
297.0
 35
0.0
146
0.0
 13
0.0
 23
0.0
 33
0.0
 16
1.0
 26
0.0
 36
0.0
 17
0.0
 27
1.0
 37
0.0
 76
     0
330
1F
  0
MLINESTYLE
  5
18
102
{ACAD_REACTORS
330
17
102
}
330
17
100
AcDbMlineStyle
  2
Standard
 70
     0
  3

 62
   256
 51
90.0
 52
90.0
 71
     2
 49
0.5
 62
   256
  6
BYLAYER
 49
-0.5
 62
   256
  6
BYLAYER
  0
ACDBPLACEHOLDER
  5
F
102
{ACAD_REACTORS
330
E
102
}
330
E
  0
ENDSEC
  0
EOF
