  0
SECTION
  2
HEADER
  9
$ACADVER
  1
AC1015
  9
$ACADMAINTVER
 70
     6
  9
$DWGCODEPAGE
  3
DOS932
  9
$INSBASE
 10
0.0
 20
0.0
 30
0.0
  9
$EXTMIN
 10
0.0
 20
0.0
 30
0.0
  9
$EXTMAX
 10
420.0
 20
297.0
 30
0.0
  9
$LIMMIN
 10
0.0
 20
0.0
  9
$LIMMAX
 10
0.0
 20
0.0
  9
$ORTHOMODE
 70
     0
  9
$REGENMODE
 70
     1
  9
$FILLMODE
 70
     1
  9
$QTEXTMODE
 70
     0
  9
$MIRRTEXT
 70
     1
  9
$LTSCALE
 40
1.0
  9
$ATTMODE
 70
     1
  9
$TEXTSIZE
 40
3.5
  9
$TRACEWID
 40
1.0
  9
$TEXTSTYLE
  7
Standard
  9
$CLAYER
  8
0
  9
$CELTYPE
  6
ByLayer
  9
$CECOLOR
 62
   256
  9
$CELTSCALE
 40
1.0
  9
$DISPSILH
 70
     0
  9
$DIMSCALE
 40
1.0
  9
$DIMASZ
 40
3.0
  9
$DIMEXO
 40
1.0
  9
$DIMDLI
 40
3.75
  9
$DIMRND
 40
0.0
  9
$DIMDLE
 40
0.0
  9
$DIMEXE
 40
1.0
  9
$DIMTP
 40
0.0
  9
$DIMTM
 40
0.0
  9
$DIMTXT
 40
3.2000000477
  9
$DIMCEN
 40
2.5
  9
$DIMTSZ
 40
0.0
  9
$DIMTOL
 70
     0
  9
$DIMLIM
 70
     0
  9
$DIMTIH
 70
     1
  9
$DIMTOH
 70
     1
  9
$DIMSE1
 70
     0
  9
$DIMSE2
 70
     0
  9
$DIMTAD
 70
     1
  9
$DIMZIN
 70
     1
  9
$DIMBLK
  1

  9
$DIMASO
 70
     1
  9
$DIMSHO
 70
     1
  9
$DIMPOST
  1

  9
$DIMAPOST
  1

  9
$DIMALT
 70
     0
  9
$DIMALTD
 70
     3
  9
$DIMALTF
 40
0.0393700787
  9
$DIMLFAC
 40
1.0
  9
$DIMTOFL
 70
     1
  9
$DIMTVP
 40
0.0
  9
$DIMTIX
 70
     0
  9
$DIMSOXD
 70
     0
  9
$DIMSAH
 70
     0
  9
$DIMBLK1
  1

  9
$DIMBLK2
  1

  9
$DIMSTYLE
  2
ISO-25
  9
$DIMCLRD
 70
     0
  9
$DIMCLRE
 70
     0
  9
$DIMCLRT
 70
     0
  9
$DIMTFAC
 40
1.0
  9
$DIMGAP
 40
1.524
  9
$DIMJUST
 70
     0
  9
$DIMSD1
 70
     0
  9
$DIMSD2
 70
     0
  9
$DIMTOLJ
 70
     0
  9
$DIMTZIN
 70
     1
  9
$DIMALTZ
 70
     0
  9
$DIMALTTZ
 70
     0
  9
$DIMUPT
 70
     0
  9
$DIMDEC
 70
     2
  9
$DIMTDEC
 70
     2
  9
$DIMALTU
 70
     2
  9
$DIMALTTD
 70
     3
  9
$DIMTXSTY
  7
Standard
  9
$DIMAUNIT
 70
     0
  9
$DIMADEC
 70
     0
  9
$DIMALTRND
 40
0.0
  9
$DIMAZIN
 70
     0
  9
$DIMDSEP
 70
    44
  9
$DIMATFIT
 70
     3
  9
$DIMFRAC
 70
     0
  9
$DIMLDRBLK
  1

  9
$DIMLUNIT
 70
     2
  9
$DIMLWD
 70
    -2
  9
$DIMLWE
 70
    -2
  9
$DIMTMOVE
 70
     0
  9
$LUNITS
 70
     2
  9
$LUPREC
 70
     4
  9
$SKETCHINC
 40
1.0
  9
$FILLETRAD
 40
10.0
  9
$AUNITS
 70
     0
  9
$AUPREC
 70
     0
  9
$MENU
  1
.
  9
$ELEVATION
 40
0.0
  9
$PELEVATION
 40
0.0
  9
$THICKNESS
 40
0.0
  9
$LIMCHECK
 70
     0
  9
$CHAMFERA
 40
10.0
  9
$CHAMFERB
 40
10.0
  9
$CHAMFERC
 40
20.0
  9
$CHAMFERD
 40
0.0
  9
$SKPOLY
 70
     0
  9
$TDCREATE
 40
2454307.495528785
  9
$TDUCREATE
 40
2454307.120528785
  9
$TDUPDATE
 40
2454307.495528796
  9
$TDUUPDATE
 40
2454307.120528796
  9
$TDINDWG
 40
0.0000000116
  9
$TDUSRTIMER
 40
0.0000000116
  9
$USRTIMER
 70
     1
  9
$ANGBASE
 50
0.0
  9
$ANGDIR
 70
     0
  9
$PDMODE
 70
     0
  9
$PDSIZE
 40
-1.0
  9
$PLINEWID
 40
0.0
  9
$SPLFRAME
 70
     0
  9
$SPLINETYPE
 70
     6
  9
$SPLINESEGS
 70
     8
  9
$HANDSEED
  5
20F
  9
$SURFTAB1
 70
     6
  9
$SURFTAB2
 70
     6
  9
$SURFTYPE
 70
     6
  9
$SURFU
 70
     6
  9
$SURFV
 70
     6
  9
$UCSBASE
  2

  9
$UCSNAME
  2

  9
$UCSORG
 10
0.0
 20
0.0
 30
0.0
  9
$UCSXDIR
 10
1.0
 20
0.0
 30
0.0
  9
$UCSYDIR
 10
0.0
 20
1.0
 30
0.0
  9
$UCSORTHOREF
  2

  9
$UCSORTHOVIEW
 70
     0
  9
$UCSORGTOP
 10
0.0
 20
0.0
 30
0.0
  9
$UCSORGBOTTOM
 10
0.0
 20
0.0
 30
0.0
  9
$UCSORGLEFT
 10
0.0
 20
0.0
 30
0.0
  9
$UCSORGRIGHT
 10
0.0
 20
0.0
 30
0.0
  9
$UCSORGFRONT
 10
0.0
 20
0.0
 30
0.0
  9
$UCSORGBACK
 10
0.0
 20
0.0
 30
0.0
  9
$PUCSBASE
  2

  9
$PUCSNAME
  2

  9
$PUCSORG
 10
0.0
 20
0.0
 30
0.0
  9
$PUCSXDIR
 10
1.0
 20
0.0
 30
0.0
  9
$PUCSYDIR
 10
0.0
 20
1.0
 30
0.0
  9
$PUCSORTHOREF
  2

  9
$PUCSORTHOVIEW
 70
     0
  9
$PUCSORGTOP
 10
0.0
 20
0.0
 30
0.0
  9
$PUCSORGBOTTOM
 10
0.0
 20
0.0
 30
0.0
  9
$PUCSORGLEFT
 10
0.0
 20
0.0
 30
0.0
  9
$PUCSORGRIGHT
 10
0.0
 20
0.0
 30
0.0
  9
$PUCSORGFRONT
 10
0.0
 20
0.0
 30
0.0
  9
$PUCSORGBACK
 10
0.0
 20
0.0
 30
0.0
  9
$USERI1
 70
     0
  9
$USERI2
 70
     0
  9
$USERI3
 70
     0
  9
$USERI4
 70
     0
  9
$USERI5
 70
     0
  9
$USERR1
 40
0.0
  9
$USERR2
 40
0.0
  9
$USERR3
 40
0.0
  9
$USERR4
 40
0.0
  9
$USERR5
 40
0.0
  9
$WORLDVIEW
 70
     1
  9
$SHADEDGE
 70
     3
  9
$SHADEDIF
 70
    70
  9
$TILEMODE
 70
     1
  9
$MAXACTVP
 70
    64
  9
$PINSBASE
 10
0.0
 20
0.0
 30
0.0
  9
$PLIMCHECK
 70
     0
  9
$PEXTMIN
 10
1.0000000000E+20
 20
1.0000000000E+20
 30
1.0000000000E+20
  9
$PEXTMAX
 10
-1.0000000000E+20
 20
-1.0000000000E+20
 30
-1.0000000000E+20
  9
$PLIMMIN
 10
0.0
 20
0.0
  9
$PLIMMAX
 10
420.0
 20
297.0
  9
$UNITMODE
 70
     0
  9
$VISRETAIN
 70
     1
  9
$PLINEGEN
 70
     0
  9
$PSLTSCALE
 70
     1
  9
$TREEDEPTH
 70
  3020
  9
$CMLSTYLE
  2
Standard
  9
$CMLJUST
 70
     0
  9
$CMLSCALE
 40
20.0
  9
$PROXYGRAPHICS
 70
     1
  9
$MEASUREMENT
 70
     1
  9
$CELWEIGHT
370
    -1
  9
$ENDCAPS
280
     0
  9
$JOINSTYLE
280
     0
  9
$LWDISPLAY
290
     1
  9
$INSUNITS
 70
     4
  9
$HYPERLINKBASE
  1

  9
$STYLESHEET
  1

  9
$XEDIT
290
     1
  9
$CEPSNTYPE
380
     0
  9
$PSTYLEMODE
290
     1
  9
$FINGERPRINTGUID
  2
{322DF1C4-6793-4A75-A0E3-B42679AFA6FD}
  9
$VERSIONGUID
  2
{FAEB1C32-E019-11D5-929B-00C0DF256EC4}
  9
$EXTNAMES
290
     1
  9
$PSVPSCALE
 40
0.0
  9
$OLESTARTUP
290
     0
  0
ENDSEC
  0
SECTION
  2
CLASSES
  0
CLASS
  1
ACDBDICTIONARYWDFLT
  2
AcDbDictionaryWithDefault
  3
ObjectDBX Classes
 90
        0
280
     0
281
     0
  0
CLASS
  1
ACDBPLACEHOLDER
  2
AcDbPlaceHolder
  3
ObjectDBX Classes
 90
        0
280
     0
281
     0
  0
CLASS
  1
LAYOUT
  2
AcDbLayout
  3
ObjectDBX Classes
 90
        0
280
     0
281
     0
  0
ENDSEC
  0
SECTION
  2
TABLES
  0
TABLE
  2
VPORT
  5
8
330
0
100
AcDbSymbolTable
 70
     1
  0
VPORT
  5
29
330
8
100
AcDbSymbolTableRecord
100
AcDbViewportTableRecord
  2
*Active
 70
     0
 10
0.0
 20
0.0
 11
1.0
 21
1.0
 12
210.0
 22
148.5
 13
0.0
 23
0.0
 14
10.0
 24
10.0
 15
10.0
 25
10.0
 16
0.0
 26
0.0
 36
1.0
 17
0.0
 27
0.0
 37
0.0
 40
297.0
 41
1.9729729729
 42
50.0
 43
0.0
 44
0.0
 50
0.0
 51
0.0
 71
     0
 72
  2000
 73
     1
 74
     3
 75
     0
 76
     0
 77
     0
 78
     0
281
     0
 65
     1
110
0.0
120
0.0
130
0.0
111
1.0
121
0.0
131
0.0
112
0.0
122
1.0
132
0.0
 79
     0
146
0.0
  0
ENDTAB
  0
TABLE
  2
LTYPE
  5
5
330
0
100
AcDbSymbolTable
 70
     6
  0
LTYPE
  5
14
330
5
100
AcDbSymbolTableRecord
100
AcDbLinetypeTableRecord
  2
ByBlock
 70
     0
  3

 72
    65
 73
     0
 40
0.0
  0
LTYPE
  5
15
330
5
100
AcDbSymbolTableRecord
100
AcDbLinetypeTableRecord
  2
ByLayer
 70
     0
  3

 72
    65
 73
     0
 40
0.0
  0
LTYPE
  5
16
330
5
100
AcDbSymbolTableRecord
100
AcDbLinetypeTableRecord
  2
Continuous
 70
     0
  3
Solid line
 72
    65
 73
     0
 40
0.0
  0
LTYPE
  5
2A
330
5
100
AcDbSymbolTableRecord
100
AcDbLinetypeTableRecord
  2
HIDDEN
 70
     0
  3
Hidden __ __ __ __ __ __ __ __ __ __ __ __ __ __
 72
    65
 73
     2
 40
1.905
 49
1.27
 74
     0
 49
-0.635
 74
     0
  0
LTYPE
  5
2B
330
5
100
AcDbSymbolTableRecord
100
AcDbLinetypeTableRecord
  2
PHANTOM
 70
     0
  3
Phantom ______  __  __  ______  __  __  ______
 72
    65
 73
     6
 40
12.7
 49
6.35
 74
     0
 49
-1.27
 74
     0
 49
1.27
 74
     0
 49
-1.27
 74
     0
 49
1.27
 74
     0
 49
-1.27
 74
     0
  0
LTYPE
  5
2C
330
5
100
AcDbSymbolTableRecord
100
AcDbLinetypeTableRecord
  2
CENTER
 70
     0
  3
Center ____ _ ____ _ ____ _ ____ _ ____ _ ____
 72
    65
 73
     4
 40
10.16
 49
6.35
 74
     0
 49
-1.27
 74
     0
 49
1.27
 74
     0
 49
-1.27
 74
     0
  0
LTYPE
  5
2D
330
5
100
AcDbSymbolTableRecord
100
AcDbLinetypeTableRecord
  2
CENTERX2
 70
     0
  3
Center (2x) ________  __  ________  __  _____
 72
    65
 73
     4
 40
20.32
 49
12.7
 74
     0
 49
-2.54
 74
     0
 49
2.54
 74
     0
 49
-2.54
 74
     0
  0
LTYPE
  5
2E
330
5
100
AcDbSymbolTableRecord
100
AcDbLinetypeTableRecord
  2
DOT2
 70
     0
  3
Dot (.5x) ........................................
 72
    65
 73
     2
 40
0.635
 49
0.0
 74
     0
 49
-0.635
 74
     0
  0
ENDTAB
  0
TABLE
  2
LAYER
  5
2
330
0
100
AcDbSymbolTable
 70
     2
  0
LAYER
  5
10
330
2
100
AcDbSymbolTableRecord
100
AcDbLayerTableRecord
  2
0
 70
     0
 62
     7
  6
Continuous
370
    -3
390
F
  0
LAYER
  5
2F
330
2
100
AcDbSymbolTableRecord
100
AcDbLayerTableRecord
  2
SLD-0
 70
     0
 62
   179
  6
Continuous
370
     0
390
F
  0
ENDTAB
  0
TABLE
  2
STYLE
  5
3
330
0
100
AcDbSymbolTable
 70
     8
  0
STYLE
  5
11
330
3
100
AcDbSymbolTableRecord
100
AcDbTextStyleTableRecord
  2
Standard
 70
     0
 40
0.0
 41
1.0
 50
0.0
 71
     0
 42
2.5
  3
txt
  4
bigfont
  0
STYLE
  5
38
330
3
100
AcDbSymbolTableRecord
100
AcDbTextStyleTableRecord
  2
SLDTEXTSTYLE0
 70
     0
 40
0.0
 41
0.6213565545
 50
0.0
 71
     0
 42
0.2
  3
TXT
  4
bigfont
  0
STYLE
  5
42
330
3
100
AcDbSymbolTableRecord
100
AcDbTextStyleTableRecord
  2
SLDTEXTSTYLE1
 70
     0
 40
0.0
 41
0.62362615
 50
0.0
 71
     0
 42
0.2
  3
TXT
  4
bigfont
  0
STYLE
  5
61
330
3
100
AcDbSymbolTableRecord
100
AcDbTextStyleTableRecord
  2
SLDTEXTSTYLE2
 70
     0
 40
0.0
 41
0.6230481785
 50
0.0
 71
     0
 42
0.2
  3
TXT
  4
bigfont
  0
STYLE
  5
66
330
3
100
AcDbSymbolTableRecord
100
AcDbTextStyleTableRecord
  2
SLDTEXTSTYLE3
 70
     0
 40
0.0
 41
0.6272516078
 50
0.0
 71
     0
 42
0.2
  3
TXT
  4
bigfont
  0
STYLE
  5
204
330
3
100
AcDbSymbolTableRecord
100
AcDbTextStyleTableRecord
  2
SLDTEXTSTYLE4
 70
     0
 40
0.0
 41
0.6222509414
 50
0.0
 71
     0
 42
0.2
  3
TXT
  4
bigfont
  0
STYLE
  5
206
330
3
100
AcDbSymbolTableRecord
100
AcDbTextStyleTableRecord
  2
SLDTEXTSTYLE5
 70
     0
 40
0.0
 41
0.6236261149
 50
0.0
 71
     0
 42
0.2
  3
TXT
  4
bigfont
  0
STYLE
  5
208
330
3
100
AcDbSymbolTableRecord
100
AcDbTextStyleTableRecord
  2
SLDTEXTSTYLE6
 70
     0
 40
0.0
 41
0.6244080763
 50
0.0
 71
     0
 42
0.2
  3
TXT
  4
bigfont
  0
ENDTAB
  0
TABLE
  2
VIEW
  5
6
330
0
100
AcDbSymbolTable
 70
     0
  0
ENDTAB
  0
TABLE
  2
UCS
  5
7
330
0
100
AcDbSymbolTable
 70
     0
  0
ENDTAB
  0
TABLE
  2
APPID
  5
9
330
0
100
AcDbSymbolTable
 70
     1
  0
APPID
  5
12
330
9
100
AcDbSymbolTableRecord
100
AcDbRegAppTableRecord
  2
ACAD
 70
     0
  0
ENDTAB
  0
TABLE
  2
DIMSTYLE
  5
A
330
0
100
AcDbSymbolTable
 70
     1
100
AcDbDimStyleTable
  0
DIMSTYLE
105
27
330
A
100
AcDbSymbolTableRecord
100
AcDbDimStyleTableRecord
  2
ISO-25
 70
     0
 41
2.5
 42
0.625
 43
3.75
 44
1.25
 73
     0
 74
     0
 77
     1
 78
     8
140
2.5
141
2.5
143
0.0393700787
147
0.625
171
     3
172
     1
271
     2
272
     2
274
     3
278
    44
283
     0
284
     8
340
11
  0
ENDTAB
  0
TABLE
  2
BLOCK_RECORD
  5
1
330
0
100
AcDbSymbolTable
 70
     7
  0
BLOCK_RECORD
  5
1F
330
1
100
AcDbSymbolTableRecord
100
AcDbBlockTableRecord
  2
*Model_Space
340
22
  0
BLOCK_RECORD
  5
1B
330
1
100
AcDbSymbolTableRecord
100
AcDbBlockTableRecord
  2
*Paper_Space
340
1E
  0
BLOCK_RECORD
  5
23
330
1
100
AcDbSymbolTableRecord
100
AcDbBlockTableRecord
  2
*Paper_Space0
340
26
  0
BLOCK_RECORD
  5
30
330
1
100
AcDbSymbolTableRecord
100
AcDbBlockTableRecord
  2
KOZU0001
340
0
102
{BLKREFS
331
20A
102
}
  0
BLOCK_RECORD
  5
3A
330
1
100
AcDbSymbolTableRecord
100
AcDbBlockTableRecord
  2
KOZU0002
340
0
102
{BLKREFS
331
20B
102
}
  0
BLOCK_RECORD
  5
44
330
1
100
AcDbSymbolTableRecord
100
AcDbBlockTableRecord
  2
KOZU0003
340
0
102
{BLKREFS
331
20C
102
}
  0
BLOCK_RECORD
  5
4D
330
1
100
AcDbSymbolTableRecord
100
AcDbBlockTableRecord
  2
KOZU0004
340
0
102
{BLKREFS
331
20D
102
}
  0
BLOCK_RECORD
  5
56
330
1
100
AcDbSymbolTableRecord
100
AcDbBlockTableRecord
  2
KOZU0005
340
0
102
{BLKREFS
331
20E
102
}
  0
BLOCK_RECORD
  5
5E
330
1
100
AcDbSymbolTableRecord
100
AcDbBlockTableRecord
  2
SW_NOTE_0
340
0
102
{BLKREFS
331
65
102
}
  0
ENDTAB
  0
ENDSEC
  0
SECTION
  2
BLOCKS
  0
BLOCK
  5
20
330
1F
100
AcDbEntity
  8
0
100
AcDbBlockBegin
  2
*Model_Space
 70
     0
 71
     0
 10
0.0
 20
0.0
 30
0.0
  3
*Model_Space
  1

  0
ENDBLK
  5
21
330
1F
100
AcDbEntity
  8
0
100
AcDbBlockEnd
  0
BLOCK
  5
1C
330
1B
100
AcDbEntity
 67
     1
  8
0
100
AcDbBlockBegin
  2
*Paper_Space
 70
     0
 71
     0
 10
0.0
 20
0.0
 30
0.0
  3
*Paper_Space
  1

  0
ENDBLK
  5
1D
330
1B
100
AcDbEntity
 67
     1
  8
0
100
AcDbBlockEnd
  0
BLOCK
  5
24
330
23
100
AcDbEntity
  8
0
100
AcDbBlockBegin
  2
*Paper_Space0
 70
     0
 71
     0
 10
0.0
 20
0.0
 30
0.0
  3
*Paper_Space0
  1

  0
ENDBLK
  5
25
330
23
100
AcDbEntity
  8
0
100
AcDbBlockEnd
  0
BLOCK
  5
31
330
30
100
AcDbEntity
  8
0
100
AcDbBlockBegin
  2
KOZU0001
 70
     0
 71
     0
 10
0.0
 20
0.0
 30
0.0
  3
KOZU0001
  1

  0
LINE
  5
33
330
30
100
AcDbEntity
  8
SLD-0
  6
Continuous
 62
   179
100
AcDbLine
 10
0.0
 20
0.0
 30
0.0
 11
6.9163803925
 21
-18.8442287575
 31
0.0
  0
LINE
  5
34
330
30
100
AcDbEntity
  8
SLD-0
  6
Continuous
 62
   179
100
AcDbLine
 10
0.0
 20
0.0
 30
0.0
 11
1.6053532754
 21
-2.742821277
 31
0.0
  0
LINE
  5
35
330
30
100
AcDbEntity
  8
SLD-0
  6
Continuous
 62
   179
100
AcDbLine
 10
0.0
 20
0.0
 30
0.0
 11
0.5501799735
 21
-3.1301005884
 31
0.0
  0
LINE
  5
36
330
30
100
AcDbEntity
  8
SLD-0
  6
Continuous
 62
   179
100
AcDbLine
 10
0.0
 20
0.0
 30
0.0
 11
6.9163803925
 21
-18.8442287575
 31
0.0
  0
LINE
  5
37
330
30
100
AcDbEntity
  8
SLD-0
  6
Continuous
 62
   179
100
AcDbLine
 10
6.9163803925
 20
-18.8442287575
 30
0.0
 11
56.4016791587
 21
-18.8442287575
 31
0.0
  0
MTEXT
  5
39
330
30
100
AcDbEntity
  8
SLD-0
100
AcDbMText
 10
10.6876793509
 20
-15.3895093299
 30
0.0
 40
3.2000000477
 41
0.0
 71
     1
 72
     1
  1
１６－Ｍ４Ｘ０．７　ネジ深７
  7
SLDTEXTSTYLE0
 73
     1
 44
1.0
  0
ENDBLK
  5
32
330
30
100
AcDbEntity
  8
0
100
AcDbBlockEnd
  0
BLOCK
  5
3B
330
3A
100
AcDbEntity
  8
0
100
AcDbBlockBegin
  2
KOZU0002
 70
     0
 71
     0
 10
0.0
 20
0.0
 30
0.0
  3
KOZU0002
  1

  0
LINE
  5
3D
330
3A
100
AcDbEntity
  8
SLD-0
  6
Continuous
 62
   179
100
AcDbLine
 10
0.0
 20
0.0
 30
0.0
 11
6.3997923553
 21
15.4942341234
 31
0.0
  0
LINE
  5
3E
330
3A
100
AcDbEntity
  8
SLD-0
  6
Continuous
 62
   179
100
AcDbLine
 10
0.0
 20
0.0
 30
0.0
 11
0.6747108312
 21
3.1056389022
 31
0.0
  0
LINE
  5
3F
330
3A
100
AcDbEntity
  8
SLD-0
  6
Continuous
 62
   179
100
AcDbLine
 10
0.0
 20
0.0
 30
0.0
 11
1.713580659
 21
2.6765404951
 31
0.0
  0
LINE
  5
40
330
3A
100
AcDbEntity
  8
SLD-0
  6
Continuous
 62
   179
100
AcDbLine
 10
0.0
 20
0.0
 30
0.0
 11
6.3997923553
 21
15.4942341234
 31
0.0
  0
LINE
  5
41
330
3A
100
AcDbEntity
  8
SLD-0
  6
Continuous
 62
   179
100
AcDbLine
 10
6.3997923553
 20
15.4942341234
 30
0.0
 11
33.1540260458
 21
15.4942341234
 31
0.0
  0
MTEXT
  5
43
330
3A
100
AcDbEntity
  8
SLD-0
100
AcDbMText
 10
9.8400261545
 20
18.948953551
 30
0.0
 40
3.2000000477
 41
0.0
 71
     1
 72
     1
  1
Ｒｃ１／８ネジ
  7
SLDTEXTSTYLE1
 73
     1
 44
1.0
  0
ENDBLK
  5
3C
330
3A
100
AcDbEntity
  8
0
100
AcDbBlockEnd
  0
BLOCK
  5
45
330
44
100
AcDbEntity
  8
0
100
AcDbBlockBegin
  2
KOZU0003
 70
     0
 71
     0
 10
0.0
 20
0.0
 30
0.0
  3
KOZU0003
  1

  0
LINE
  5
47
330
44
100
AcDbEntity
  8
SLD-0
  6
Continuous
 62
   179
100
AcDbLine
 10
0.0
 20
0.0
 30
0.0
 11
9.1478837413
 21
-24.5790992546
 31
0.0
  0
LINE
  5
48
330
44
100
AcDbEntity
  8
SLD-0
  6
Continuous
 62
   179
100
AcDbLine
 10
0.0
 20
0.0
 30
0.0
 11
1.6177700774
 21
-2.7355159794
 31
0.0
  0
LINE
  5
49
330
44
100
AcDbEntity
  8
SLD-0
  6
Continuous
 62
   179
100
AcDbLine
 10
0.0
 20
0.0
 30
0.0
 11
0.5643631659
 21
-3.1275744457
 31
0.0
  0
LINE
  5
4A
330
44
100
AcDbEntity
  8
SLD-0
  6
Continuous
 62
   179
100
AcDbLine
 10
0.0
 20
0.0
 30
0.0
 11
9.1478837413
 21
-24.5790992546
 31
0.0
  0
LINE
  5
4B
330
44
100
AcDbEntity
  8
SLD-0
  6
Continuous
 62
   179
100
AcDbLine
 10
9.1478837413
 20
-24.5790992546
 30
0.0
 11
38.4501075806
 21
-24.5790992546
 31
0.0
  0
MTEXT
  5
4C
330
44
100
AcDbEntity
  8
SLD-0
100
AcDbMText
 10
15.1361076893
 20
-21.124379827
 30
0.0
 40
3.2000000477
 41
0.0
 71
     1
 72
     1
  1
４－Ｍ５深１２
  7
SLDTEXTSTYLE1
 73
     1
 44
1.0
  0
ENDBLK
  5
46
330
44
100
AcDbEntity
  8
0
100
AcDbBlockEnd
  0
BLOCK
  5
4E
330
4D
100
AcDbEntity
  8
0
100
AcDbBlockBegin
  2
KOZU0004
 70
     0
 71
     0
 10
0.0
 20
0.0
 30
0.0
  3
KOZU0004
  1

  0
LINE
  5
50
330
4D
100
AcDbEntity
  8
SLD-0
  6
Continuous
 62
   179
100
AcDbLine
 10
0.0
 20
0.0
 30
0.0
 11
11.3554871432
 21
26.7351596582
 31
0.0
  0
LINE
  5
51
330
4D
100
AcDbEntity
  8
SLD-0
  6
Continuous
 62
   179
100
AcDbLine
 10
0.0
 20
0.0
 30
0.0
 11
0.705579022
 21
3.0987716825
 31
0.0
  0
LINE
  5
52
330
4D
100
AcDbEntity
  8
SLD-0
  6
Continuous
 62
   179
100
AcDbLine
 10
0.0
 20
0.0
 30
0.0
 11
1.7401278254
 21
2.6593576006
 31
0.0
  0
LINE
  5
53
330
4D
100
AcDbEntity
  8
SLD-0
  6
Continuous
 62
   179
100
AcDbLine
 10
0.0
 20
0.0
 30
0.0
 11
11.3554871432
 21
26.7351596582
 31
0.0
  0
LINE
  5
54
330
4D
100
AcDbEntity
  8
SLD-0
  6
Continuous
 62
   179
100
AcDbLine
 10
11.3554871432
 20
26.7351596582
 30
0.0
 11
38.2154678004
 21
26.7351596582
 31
0.0
  0
MTEXT
  5
55
330
4D
100
AcDbEntity
  8
SLD-0
100
AcDbMText
 10
14.9014679091
 20
30.1898790858
 30
0.0
 40
3.2000000477
 41
0.0
 71
     1
 72
     1
  1
Ｒｃ１／８ネジ
  7
SLDTEXTSTYLE1
 73
     1
 44
1.0
  0
ENDBLK
  5
4F
330
4D
100
AcDbEntity
  8
0
100
AcDbBlockEnd
  0
BLOCK
  5
57
330
56
100
AcDbEntity
  8
0
100
AcDbBlockBegin
  2
KOZU0005
 70
     0
 71
     0
 10
0.0
 20
0.0
 30
0.0
  3
KOZU0005
  1

  0
LINE
  5
59
330
56
100
AcDbEntity
  8
SLD-0
  6
Continuous
 62
   179
100
AcDbLine
 10
0.0
 20
0.0
 30
0.0
 11
13.5743941747
 21
-21.9772178033
 31
0.0
  0
LINE
  5
5A
330
56
100
AcDbEntity
  8
SLD-0
  6
Continuous
 62
   179
100
AcDbLine
 10
0.0
 20
0.0
 30
0.0
 11
2.1219081152
 21
-2.3659530104
 31
0.0
  0
LINE
  5
5B
330
56
100
AcDbEntity
  8
SLD-0
  6
Continuous
 62
   179
100
AcDbLine
 10
0.0
 20
0.0
 30
0.0
 11
1.1656156596
 21
-2.9566142513
 31
0.0
  0
LINE
  5
5C
330
56
100
AcDbEntity
  8
SLD-0
  6
Continuous
 62
   179
100
AcDbLine
 10
0.0
 20
0.0
 30
0.0
 11
13.5743941747
 21
-21.9772178033
 31
0.0
  0
LINE
  5
5D
330
56
100
AcDbEntity
  8
SLD-0
  6
Continuous
 62
   179
100
AcDbLine
 10
13.5743941747
 20
-21.9772178033
 30
0.0
 11
43.2545607267
 21
-21.9772178033
 31
0.0
  0
INSERT
  5
65
330
56
100
AcDbEntity
  8
SLD-0
 62
     7
100
AcDbBlockReference
  2
SW_NOTE_0
 10
16.7405608473
 20
-22.8127734229
 30
0.0
  0
MTEXT
  5
67
330
56
100
AcDbEntity
  8
SLD-0
100
AcDbMText
 10
16.7405608473
 20
-24.1384984594
 30
0.0
 40
3.2000000477
 41
0.0
 71
     1
 72
     1
  1
（別注）
  7
SLDTEXTSTYLE3
 73
     1
 44
1.0
  0
ENDBLK
  5
58
330
56
100
AcDbEntity
  8
0
100
AcDbBlockEnd
  0
BLOCK
  5
5F
330
5E
100
AcDbEntity
  8
0
100
AcDbBlockBegin
  2
SW_NOTE_0
 70
     0
 71
     0
 10
0.0
 20
0.0
 30
0.0
  3
SW_NOTE_0
  1

  0
MTEXT
  5
62
330
5E
100
AcDbEntity
  8
SLD-0
100
AcDbMText
 10
0.0
 20
4.2902750472
 30
0.0
 40
3.2000000477
 41
0.0
 71
     1
 72
     1
  1
２－
  7
SLDTEXTSTYLE2
 73
     1
 44
1.0
  0
MTEXT
  5
63
330
5E
100
AcDbEntity
  8
SLD-0
100
AcDbMText
 10
10.6533337384
 20
4.2902750472
 30
0.0
 40
3.2000000477
 41
0.0
 71
     1
 72
     1
  1
%%c
  7
SLDTEXTSTYLE2
 73
     1
 44
1.0
  0
MTEXT
  5
64
330
5E
100
AcDbEntity
  8
SLD-0
100
AcDbMText
 10
15.8382225782
 20
4.2902750472
 30
0.0
 40
3.2000000477
 41
0.0
 71
     1
 72
     1
  1
５．３キリ
  7
SLDTEXTSTYLE2
 73
     1
 44
1.0
  0
ENDBLK
  5
60
330
5E
100
AcDbEntity
  8
0
100
AcDbBlockEnd
  0
ENDSEC
  0
SECTION
  2
ENTITIES
  0
LINE
  5
68
330
1F
100
AcDbEntity
  8
SLD-0
  6
Continuous
 62
   179
100
AcDbLine
 10
263.4992373191
 20
75.6322937926
 30
0.0
 11
263.4992373191
 21
117.6322937926
 31
0.0
  0
LINE
  5
69
330
1F
100
AcDbEntity
  8
SLD-0
  6
Continuous
 62
   179
100
AcDbLine
 10
263.4992373191
 20
117.6322937926
 30
0.0
 11
261.9992373191
 21
119.1322937926
 31
0.0
  0
LINE
  5
6A
330
1F
100
AcDbEntity
  8
SLD-0
  6
Continuous
 62
   179
100
AcDbLine
 10
261.9992373191
 20
119.1322937926
 30
0.0
 11
261.9992373191
 21
110.1322937926
 31
0.0
  0
LINE
  5
6B
330
1F
100
AcDbEntity
  8
SLD-0
  6
Continuous
 62
   179
100
AcDbLine
 10
261.9992373191
 20
110.1322937926
 30
0.0
 11
248.4992373191
 21
110.1322937926
 31
0.0
  0
LINE
  5
6C
330
1F
100
AcDbEntity
  8
SLD-0
  6
Continuous
 62
   179
100
AcDbLine
 10
248.4992373191
 20
110.1322937926
 30
0.0
 11
248.4992373191
 21
83.1322937926
 31
0.0
  0
LINE
  5
6D
330
1F
100
AcDbEntity
  8
SLD-0
  6
Continuous
 62
   179
100
AcDbLine
 10
248.4992373191
 20
83.1322937926
 30
0.0
 11
261.9992373191
 21
83.1322937926
 31
0.0
  0
LINE
  5
6E
330
1F
100
AcDbEntity
  8
SLD-0
  6
Continuous
 62
   179
100
AcDbLine
 10
261.9992373191
 20
83.1322937926
 30
0.0
 11
263.4992373191
 21
84.6322937926
 31
0.0
  0
LINE
  5
6F
330
1F
100
AcDbEntity
  8
SLD-0
  6
Continuous
 62
   179
100
AcDbLine
 10
261.9992373191
 20
83.1322937926
 30
0.0
 11
261.9992373191
 21
74.1322937926
 31
0.0
  0
LINE
  5
70
330
1F
100
AcDbEntity
  8
SLD-0
  6
Continuous
 62
   179
100
AcDbLine
 10
261.9992373191
 20
74.1322937926
 30
0.0
 11
263.4992373191
 21
75.6322937926
 31
0.0
  0
LINE
  5
71
330
1F
100
AcDbEntity
  8
SLD-0
  6
Continuous
 62
   179
100
AcDbLine
 10
243.4992373191
 20
87.9369337926
 30
0.0
 11
242.4992373191
 21
86.9369337926
 31
0.0
  0
LINE
  5
72
330
1F
100
AcDbEntity
  8
SLD-0
  6
Continuous
 62
   179
100
AcDbLine
 10
242.4992373191
 20
86.9369337926
 30
0.0
 11
242.4992373191
 21
106.3276527926
 31
0.0
  0
LINE
  5
73
330
1F
100
AcDbEntity
  8
SLD-0
  6
Continuous
 62
   179
100
AcDbLine
 10
242.4992373191
 20
106.3276527926
 30
0.0
 11
231.4992373191
 21
106.3276527926
 31
0.0
  0
LINE
  5
74
330
1F
100
AcDbEntity
  8
SLD-0
  6
Continuous
 62
   179
100
AcDbLine
 10
229.4992373191
 20
108.3276527926
 30
0.0
 11
229.4992373191
 21
119.1322937926
 31
0.0
  0
LINE
  5
75
330
1F
100
AcDbEntity
  8
SLD-0
  6
Continuous
 62
   179
100
AcDbLine
 10
243.4992373191
 20
118.8322937926
 30
0.0
 11
243.7992373191
 21
119.1322937926
 31
0.0
  0
LINE
  5
76
330
1F
100
AcDbEntity
  8
SLD-0
  6
Continuous
 62
   179
100
AcDbLine
 10
243.7992373191
 20
119.1322937926
 30
0.0
 11
261.9992373191
 21
119.1322937926
 31
0.0
  0
LINE
  5
77
330
1F
100
AcDbEntity
  8
SLD-0
  6
Continuous
 62
   179
100
AcDbLine
 10
261.9992373191
 20
110.1322937926
 30
0.0
 11
263.4992373191
 21
108.6322937926
 31
0.0
  0
LINE
  5
78
330
1F
100
AcDbEntity
  8
SLD-0
  6
Continuous
 62
   179
100
AcDbLine
 10
243.4992373191
 20
105.3276527926
 30
0.0
 11
242.4992373191
 21
106.3276527926
 31
0.0
  0
LINE
  5
79
330
1F
100
AcDbEntity
  8
SLD-0
  6
Continuous
 62
   179
100
AcDbLine
 10
243.4992371324
 20
119.1322940532
 30
0.0
 11
243.4992371324
 21
74.1322935321
 31
0.0
  0
LINE
  5
7A
330
1F
100
AcDbEntity
  8
SLD-0
  6
Continuous
 62
   179
100
AcDbLine
 10
243.4992371324
 20
74.1322935321
 30
0.0
 11
158.4992371324
 21
74.1322935321
 31
0.0
  0
LINE
  5
7B
330
1F
100
AcDbEntity
  8
SLD-0
  6
Continuous
 62
   179
100
AcDbLine
 10
158.4992371324
 20
74.1322935321
 30
0.0
 11
158.4992371324
 21
90.6322935321
 31
0.0
  0
LINE
  5
7C
330
1F
100
AcDbEntity
  8
SLD-0
  6
Continuous
 62
   179
100
AcDbLine
 10
166.6992373191
 20
90.6322937926
 30
0.0
 11
166.6992373191
 21
102.6322937926
 31
0.0
  0
LINE
  5
7D
330
1F
100
AcDbEntity
  8
SLD-0
  6
Continuous
 62
   179
100
AcDbLine
 10
166.6992373191
 20
102.6322937926
 30
0.0
 11
134.4992373191
 21
102.6322937926
 31
0.0
  0
LINE
  5
7E
330
1F
100
AcDbEntity
  8
SLD-0
  6
Continuous
 62
   179
100
AcDbLine
 10
134.4992373191
 20
102.6322937926
 30
0.0
 11
134.4992373191
 21
109.6322937926
 31
0.0
  0
LINE
  5
7F
330
1F
100
AcDbEntity
  8
SLD-0
  6
Continuous
 62
   179
100
AcDbLine
 10
134.4992373191
 20
109.6322937926
 30
0.0
 11
145.2421633191
 21
109.6322937926
 31
0.0
  0
LINE
  5
80
330
1F
100
AcDbEntity
  8
SLD-0
  6
Continuous
 62
   179
100
AcDbLine
 10
158.4992371324
 20
119.1322940532
 30
0.0
 11
243.4992371324
 21
119.1322940532
 31
0.0
  0
LINE
  5
81
330
1F
100
AcDbEntity
  8
SLD-0
  6
Continuous
 62
   179
100
AcDbLine
 10
242.4992373191
 20
86.9369337926
 30
0.0
 11
231.4992373191
 21
86.9369337926
 31
0.0
  0
LINE
  5
82
330
1F
100
AcDbEntity
  8
SLD-0
  6
Continuous
 62
   179
100
AcDbLine
 10
229.4992373191
 20
84.9369337926
 30
0.0
 11
229.4992373191
 21
74.1322937926
 31
0.0
  0
LINE
  5
83
330
1F
100
AcDbEntity
  8
SLD-0
  6
Continuous
 62
   179
100
AcDbLine
 10
243.4992373191
 20
74.4322937926
 30
0.0
 11
243.7992373191
 21
74.1322937926
 31
0.0
  0
LINE
  5
84
330
1F
100
AcDbEntity
  8
SLD-0
  6
Continuous
 62
   179
100
AcDbLine
 10
243.7992373191
 20
74.1322937926
 30
0.0
 11
261.9992373191
 21
74.1322937926
 31
0.0
  0
LINE
  5
85
330
1F
100
AcDbEntity
  8
SLD-0
  6
Continuous
 62
   179
100
AcDbLine
 10
214.4992373191
 20
74.1322937926
 30
0.0
 11
214.4992373191
 21
119.1322937926
 31
0.0
  0
LINE
  5
86
330
1F
100
AcDbEntity
  8
SLD-0
  6
Continuous
 62
   179
100
AcDbLine
 10
189.4992373191
 20
119.1322937926
 30
0.0
 11
189.4992373191
 21
74.1322937926
 31
0.0
  0
LINE
  5
87
330
1F
100
AcDbEntity
  8
SLD-0
  6
Continuous
 62
   179
100
AcDbLine
 10
145.2421633191
 20
83.6322937926
 30
0.0
 11
134.4992373191
 21
83.6322937926
 31
0.0
  0
LINE
  5
88
330
1F
100
AcDbEntity
  8
SLD-0
  6
Continuous
 62
   179
100
AcDbLine
 10
134.4992373191
 20
83.6322937926
 30
0.0
 11
134.4992373191
 21
90.6322937926
 31
0.0
  0
LINE
  5
89
330
1F
100
AcDbEntity
  8
SLD-0
  6
Continuous
 62
   179
100
AcDbLine
 10
134.4992373191
 20
90.6322937926
 30
0.0
 11
166.6992373191
 21
90.6322937926
 31
0.0
  0
LINE
  5
8A
330
1F
100
AcDbEntity
  8
SLD-0
  6
Continuous
 62
   179
100
AcDbLine
 10
148.9101823191
 20
83.1432387926
 30
0.0
 11
148.6992373191
 21
82.9322937926
 31
0.0
  0
LINE
  5
8B
330
1F
100
AcDbEntity
  8
SLD-0
  6
Continuous
 62
   179
100
AcDbLine
 10
148.6992373191
 20
82.9322937926
 30
0.0
 11
138.2992373191
 21
82.9322937926
 31
0.0
  0
LINE
  5
8C
330
1F
100
AcDbEntity
  8
SLD-0
  6
Continuous
 62
   179
100
AcDbLine
 10
138.2992373191
 20
82.9322937926
 30
0.0
 11
137.9992373191
 21
83.2322937926
 31
0.0
  0
LINE
  5
8D
330
1F
100
AcDbEntity
  8
SLD-0
  6
Continuous
 62
   179
100
AcDbLine
 10
137.9992373191
 20
83.2322937926
 30
0.0
 11
137.9992373191
 21
83.6322937926
 31
0.0
  0
LINE
  5
8E
330
1F
100
AcDbEntity
  8
SLD-0
  6
Continuous
 62
   179
100
AcDbLine
 10
137.9992373191
 20
83.2322937926
 30
0.0
 11
148.5648133191
 21
83.2322937926
 31
0.0
  0
LINE
  5
8F
330
1F
100
AcDbEntity
  8
SLD-0
  6
Continuous
 62
   179
100
AcDbLine
 10
146.0992373191
 20
81.4322937926
 30
0.0
 11
142.0992373191
 21
81.4322937926
 31
0.0
  0
LINE
  5
90
330
1F
100
AcDbEntity
  8
SLD-0
  6
Continuous
 62
   179
100
AcDbLine
 10
142.0992373191
 20
82.4322937926
 30
0.0
 11
146.0992373191
 21
82.4322937926
 31
0.0
  0
LINE
  5
91
330
1F
100
AcDbEntity
  8
SLD-0
  6
Continuous
 62
   179
100
AcDbLine
 10
145.4992373191
 20
82.4322937926
 30
0.0
 11
145.4992373191
 21
82.9322937926
 31
0.0
  0
LINE
  5
92
330
1F
100
AcDbEntity
  8
SLD-0
  6
Continuous
 62
   179
100
AcDbLine
 10
145.4992373191
 20
81.4322937926
 30
0.0
 11
145.4992373191
 21
80.6322937926
 31
0.0
  0
LINE
  5
93
330
1F
100
AcDbEntity
  8
SLD-0
  6
Continuous
 62
   179
100
AcDbLine
 10
145.4992373191
 20
80.6322937926
 30
0.0
 11
144.9992373191
 21
80.1322937926
 31
0.0
  0
LINE
  5
94
330
1F
100
AcDbEntity
  8
SLD-0
  6
Continuous
 62
   179
100
AcDbLine
 10
144.9992373191
 20
80.1322937926
 30
0.0
 11
141.9992373191
 21
80.1322937926
 31
0.0
  0
LINE
  5
95
330
1F
100
AcDbEntity
  8
SLD-0
  6
Continuous
 62
   179
100
AcDbLine
 10
141.9992373191
 20
80.1322937926
 30
0.0
 11
141.4992373191
 21
80.6322937926
 31
0.0
  0
LINE
  5
96
330
1F
100
AcDbEntity
  8
SLD-0
  6
Continuous
 62
   179
100
AcDbLine
 10
141.4992373191
 20
80.6322937926
 30
0.0
 11
141.4992373191
 21
82.9322937926
 31
0.0
  0
LINE
  5
97
330
1F
100
AcDbEntity
  8
SLD-0
  6
Continuous
 62
   179
100
AcDbLine
 10
141.4992373191
 20
80.6322937926
 30
0.0
 11
145.4992373191
 21
80.6322937926
 31
0.0
  0
LINE
  5
98
330
1F
100
AcDbEntity
  8
SLD-0
  6
Continuous
 62
   179
100
AcDbLine
 10
145.4992373191
 20
90.6322937926
 30
0.0
 11
145.4992373191
 21
102.6322937926
 31
0.0
  0
LINE
  5
99
330
1F
100
AcDbEntity
  8
SLD-0
  6
Continuous
 62
   179
100
AcDbLine
 10
141.4992373191
 20
102.6322937926
 30
0.0
 11
141.4992373191
 21
90.6322937926
 31
0.0
  0
LINE
  5
9A
330
1F
100
AcDbEntity
  8
SLD-0
  6
Continuous
 62
   179
100
AcDbLine
 10
137.9992373191
 20
109.6322937926
 30
0.0
 11
137.9992373191
 21
110.0322937926
 31
0.0
  0
LINE
  5
9B
330
1F
100
AcDbEntity
  8
SLD-0
  6
Continuous
 62
   179
100
AcDbLine
 10
137.9992373191
 20
110.0322937926
 30
0.0
 11
138.2992373191
 21
110.3322937926
 31
0.0
  0
LINE
  5
9C
330
1F
100
AcDbEntity
  8
SLD-0
  6
Continuous
 62
   179
100
AcDbLine
 10
138.2992373191
 20
110.3322937926
 30
0.0
 11
148.6992373191
 21
110.3322937926
 31
0.0
  0
LINE
  5
9D
330
1F
100
AcDbEntity
  8
SLD-0
  6
Continuous
 62
   179
100
AcDbLine
 10
148.6992373191
 20
110.3322937926
 30
0.0
 11
148.9101823191
 21
110.1213487926
 31
0.0
  0
LINE
  5
9E
330
1F
100
AcDbEntity
  8
SLD-0
  6
Continuous
 62
   179
100
AcDbLine
 10
148.5648133191
 20
110.0322937926
 30
0.0
 11
137.9992373191
 21
110.0322937926
 31
0.0
  0
LINE
  5
9F
330
1F
100
AcDbEntity
  8
SLD-0
  6
Continuous
 62
   179
100
AcDbLine
 10
141.4992373191
 20
110.3322937926
 30
0.0
 11
141.4992373191
 21
112.6322937926
 31
0.0
  0
LINE
  5
A0
330
1F
100
AcDbEntity
  8
SLD-0
  6
Continuous
 62
   179
100
AcDbLine
 10
141.4992373191
 20
112.6322937926
 30
0.0
 11
141.9992373191
 21
113.1322937926
 31
0.0
  0
LINE
  5
A1
330
1F
100
AcDbEntity
  8
SLD-0
  6
Continuous
 62
   179
100
AcDbLine
 10
141.9992373191
 20
113.1322937926
 30
0.0
 11
144.9992373191
 21
113.1322937926
 31
0.0
  0
LINE
  5
A2
330
1F
100
AcDbEntity
  8
SLD-0
  6
Continuous
 62
   179
100
AcDbLine
 10
144.9992373191
 20
113.1322937926
 30
0.0
 11
145.4992373191
 21
112.6322937926
 31
0.0
  0
LINE
  5
A3
330
1F
100
AcDbEntity
  8
SLD-0
  6
Continuous
 62
   179
100
AcDbLine
 10
145.4992373191
 20
112.6322937926
 30
0.0
 11
141.4992373191
 21
112.6322937926
 31
0.0
  0
LINE
  5
A4
330
1F
100
AcDbEntity
  8
SLD-0
  6
Continuous
 62
   179
100
AcDbLine
 10
144.9992373191
 20
111.8322937926
 30
0.0
 11
146.6952103191
 21
111.8322937926
 31
0.0
  0
LINE
  5
A5
330
1F
100
AcDbEntity
  8
SLD-0
  6
Continuous
 62
   179
100
AcDbLine
 10
146.6952103191
 20
110.8322937926
 30
0.0
 11
144.9992373191
 21
110.8322937926
 31
0.0
  0
LINE
  5
A6
330
1F
100
AcDbEntity
  8
SLD-0
  6
Continuous
 62
   179
100
AcDbLine
 10
145.4992373191
 20
111.8322937926
 30
0.0
 11
145.4992373191
 21
112.6322937926
 31
0.0
  0
LINE
  5
A7
330
1F
100
AcDbEntity
  8
SLD-0
  6
Continuous
 62
   179
100
AcDbLine
 10
145.4992373191
 20
110.8322937926
 30
0.0
 11
145.4992373191
 21
110.3322937926
 31
0.0
  0
LINE
  5
A8
330
1F
100
AcDbEntity
  8
SLD-0
  6
Continuous
 62
   179
100
AcDbLine
 10
158.4992371324
 20
102.6322940532
 30
0.0
 11
158.4992371324
 21
119.1322940532
 31
0.0
  0
LINE
  5
A9
330
1F
100
AcDbEntity
  8
SLD-0
  6
Continuous
 62
   179
100
AcDbLine
 10
189.4992373191
 20
165.7780077926
 30
0.0
 11
189.4992373191
 21
210.7780077926
 31
0.0
  0
LINE
  5
AA
330
1F
100
AcDbEntity
  8
SLD-0
  6
Continuous
 62
   179
100
AcDbLine
 10
158.4992373191
 20
210.7780077926
 30
0.0
 11
243.4992373191
 21
210.7780077926
 31
0.0
  0
LINE
  5
AB
330
1F
100
AcDbEntity
  8
SLD-0
  6
Continuous
 62
   179
100
AcDbLine
 10
243.4992373191
 20
210.7780077926
 30
0.0
 11
243.4992373191
 21
165.7780077926
 31
0.0
  0
LINE
  5
AC
330
1F
100
AcDbEntity
  8
SLD-0
  6
Continuous
 62
   179
100
AcDbLine
 10
243.4992373191
 20
165.7780077926
 30
0.0
 11
158.4992373191
 21
165.7780077926
 31
0.0
  0
LINE
  5
AD
330
1F
100
AcDbEntity
  8
SLD-0
  6
Continuous
 62
   179
100
AcDbLine
 10
158.4992373191
 20
165.7780077926
 30
0.0
 11
134.4992373191
 21
178.2780077926
 31
0.0
  0
LINE
  5
AE
330
1F
100
AcDbEntity
  8
SLD-0
  6
Continuous
 62
   179
100
AcDbLine
 10
134.4992373191
 20
178.2780077926
 30
0.0
 11
134.4992373191
 21
198.2780077926
 31
0.0
  0
LINE
  5
AF
330
1F
100
AcDbEntity
  8
SLD-0
  6
Continuous
 62
   179
100
AcDbLine
 10
134.4992373191
 20
198.2780077926
 30
0.0
 11
158.4992373191
 21
210.7780077926
 31
0.0
  0
LINE
  5
B0
330
1F
100
AcDbEntity
  8
SLD-0
  6
Continuous
 62
   179
100
AcDbLine
 10
158.4992373191
 20
210.7780077926
 30
0.0
 11
158.4992373191
 21
165.7780077926
 31
0.0
  0
LINE
  5
B1
330
1F
100
AcDbEntity
  8
SLD-0
  6
Continuous
 62
   179
100
AcDbLine
 10
146.4291668431
 20
181.9780073012
 30
0.0
 11
145.1703758431
 21
183.4781763012
 31
0.0
  0
LINE
  5
B2
330
1F
100
AcDbEntity
  8
SLD-0
  6
Continuous
 62
   179
100
AcDbLine
 10
142.999237286
 20
191.4057269357
 30
0.0
 11
142.999237286
 21
190.2144999357
 31
0.0
  0
LINE
  5
B3
330
1F
100
AcDbEntity
  8
SLD-0
  6
Continuous
 62
   179
100
AcDbLine
 10
143.9992373471
 20
190.2144998567
 30
0.0
 11
143.9992373471
 21
191.9867198567
 31
0.0
  0
LINE
  5
B4
330
1F
100
AcDbEntity
  8
SLD-0
  6
Continuous
 62
   179
100
AcDbLine
 10
143.9992373191
 20
186.3415157926
 30
0.0
 11
143.9992373191
 21
180.4780077926
 31
0.0
  0
LINE
  5
B5
330
1F
100
AcDbEntity
  8
SLD-0
  6
Continuous
 62
   179
100
AcDbLine
 10
143.9992373191
 20
180.4780077926
 30
0.0
 11
142.9992373191
 21
180.4780077926
 31
0.0
  0
LINE
  5
B6
330
1F
100
AcDbEntity
  8
SLD-0
  6
Continuous
 62
   179
100
AcDbLine
 10
142.9992373191
 20
180.4780077926
 30
0.0
 11
142.9992373191
 21
186.3415157926
 31
0.0
  0
LINE
  5
B7
330
1F
100
AcDbEntity
  8
SLD-0
  6
Continuous
 62
   179
100
AcDbLine
 10
145.9364202279
 20
184.1209636241
 30
0.0
 11
147.1952112279
 21
182.6207956241
 31
0.0
  0
LINE
  5
B8
330
1F
100
AcDbEntity
  8
SLD-0
  6
Continuous
 62
   179
100
AcDbLine
 10
147.1952112279
 20
182.6207956241
 30
0.0
 11
146.4291668431
 21
181.9780073012
 31
0.0
  0
LINE
  5
B9
330
1F
100
AcDbEntity
  8
SLD-0
  6
Continuous
 62
   179
100
AcDbLine
 10
214.4992373191
 20
165.7780077926
 30
0.0
 11
214.4992373191
 21
210.7780077926
 31
0.0
  0
LINE
  5
BA
330
1F
100
AcDbEntity
  8
SLD-0
  6
Continuous
 62
   179
100
AcDbLine
 10
229.4992373191
 20
210.7780077926
 30
0.0
 11
229.4992373191
 21
199.9733677926
 31
0.0
  0
LINE
  5
BB
330
1F
100
AcDbEntity
  8
SLD-0
  6
Continuous
 62
   179
100
AcDbLine
 10
231.4992373191
 20
197.9733677926
 30
0.0
 11
242.4992373191
 21
197.9733677926
 31
0.0
  0
LINE
  5
BC
330
1F
100
AcDbEntity
  8
SLD-0
  6
Continuous
 62
   179
100
AcDbLine
 10
242.4992373191
 20
197.9733677926
 30
0.0
 11
243.4992373191
 21
196.9733677926
 31
0.0
  0
LINE
  5
BD
330
1F
100
AcDbEntity
  8
SLD-0
  6
Continuous
 62
   179
100
AcDbLine
 10
242.4992373191
 20
197.9733677926
 30
0.0
 11
242.4992373191
 21
178.5826477926
 31
0.0
  0
LINE
  5
BE
330
1F
100
AcDbEntity
  8
SLD-0
  6
Continuous
 62
   179
100
AcDbLine
 10
242.4992373191
 20
178.5826477926
 30
0.0
 11
231.4992373191
 21
178.5826477926
 31
0.0
  0
LINE
  5
BF
330
1F
100
AcDbEntity
  8
SLD-0
  6
Continuous
 62
   179
100
AcDbLine
 10
229.4992373191
 20
176.5826477926
 30
0.0
 11
229.4992373191
 21
165.7780077926
 31
0.0
  0
LINE
  5
C0
330
1F
100
AcDbEntity
  8
SLD-0
  6
Continuous
 62
   179
100
AcDbLine
 10
243.4992373191
 20
166.0780077926
 30
0.0
 11
243.7992373191
 21
165.7780077926
 31
0.0
  0
LINE
  5
C1
330
1F
100
AcDbEntity
  8
SLD-0
  6
Continuous
 62
   179
100
AcDbLine
 10
243.7992373191
 20
165.7780077926
 30
0.0
 11
248.4992373191
 21
165.7780077926
 31
0.0
  0
LINE
  5
C2
330
1F
100
AcDbEntity
  8
SLD-0
  6
Continuous
 62
   179
100
AcDbLine
 10
248.4992373191
 20
165.7780077926
 30
0.0
 11
248.4992373191
 21
168.2780077926
 31
0.0
  0
LINE
  5
C3
330
1F
100
AcDbEntity
  8
SLD-0
  6
Continuous
 62
   179
100
AcDbLine
 10
250.4992373191
 20
170.2780077926
 30
0.0
 11
261.9992373191
 21
170.2780077926
 31
0.0
  0
LINE
  5
C4
330
1F
100
AcDbEntity
  8
SLD-0
  6
Continuous
 62
   179
100
AcDbLine
 10
261.9992373191
 20
170.2780077926
 30
0.0
 11
261.9992373191
 21
206.2780077926
 31
0.0
  0
LINE
  5
C5
330
1F
100
AcDbEntity
  8
SLD-0
  6
Continuous
 62
   179
100
AcDbLine
 10
261.9992373191
 20
206.2780077926
 30
0.0
 11
250.4992373191
 21
206.2780077926
 31
0.0
  0
LINE
  5
C6
330
1F
100
AcDbEntity
  8
SLD-0
  6
Continuous
 62
   179
100
AcDbLine
 10
248.4992373191
 20
208.2780077926
 30
0.0
 11
248.4992373191
 21
210.7780077926
 31
0.0
  0
LINE
  5
C7
330
1F
100
AcDbEntity
  8
SLD-0
  6
Continuous
 62
   179
100
AcDbLine
 10
248.4992373191
 20
210.7780077926
 30
0.0
 11
243.7992373191
 21
210.7780077926
 31
0.0
  0
LINE
  5
C8
330
1F
100
AcDbEntity
  8
SLD-0
  6
Continuous
 62
   179
100
AcDbLine
 10
243.7992373191
 20
210.7780077926
 30
0.0
 11
243.4992373191
 21
210.4780077926
 31
0.0
  0
LINE
  5
C9
330
1F
100
AcDbEntity
  8
SLD-0
  6
Continuous
 62
   179
100
AcDbLine
 10
261.9992373191
 20
206.2780077926
 30
0.0
 11
263.4992373191
 21
204.7780077926
 31
0.0
  0
LINE
  5
CA
330
1F
100
AcDbEntity
  8
SLD-0
  6
Continuous
 62
   179
100
AcDbLine
 10
263.4992373191
 20
204.7780077926
 30
0.0
 11
263.4992373191
 21
171.7780077926
 31
0.0
  0
LINE
  5
CB
330
1F
100
AcDbEntity
  8
SLD-0
  6
Continuous
 62
   179
100
AcDbLine
 10
263.4992373191
 20
171.7780077926
 30
0.0
 11
261.9992373191
 21
170.2780077926
 31
0.0
  0
LINE
  5
CC
330
1F
100
AcDbEntity
  8
SLD-0
  6
Continuous
 62
   179
100
AcDbLine
 10
243.4992373191
 20
179.5826477926
 30
0.0
 11
242.4992373191
 21
178.5826477926
 31
0.0
  0
LINE
  5
CD
330
1F
100
AcDbEntity
  8
SLD-0
  6
Continuous
 62
   179
100
AcDbLine
 10
317.6781983191
 20
165.7780077926
 30
0.0
 11
362.6781983191
 21
165.7780077926
 31
0.0
  0
LINE
  5
CE
330
1F
100
AcDbEntity
  8
SLD-0
  6
Continuous
 62
   179
100
AcDbLine
 10
362.6781983191
 20
165.7780077926
 30
0.0
 11
362.6781983191
 21
210.7780077926
 31
0.0
  0
LINE
  5
CF
330
1F
100
AcDbEntity
  8
SLD-0
  6
Continuous
 62
   179
100
AcDbLine
 10
362.6781983191
 20
210.7780077926
 30
0.0
 11
317.6781983191
 21
210.7780077926
 31
0.0
  0
LINE
  5
D0
330
1F
100
AcDbEntity
  8
SLD-0
  6
Continuous
 62
   179
100
AcDbLine
 10
317.6781983191
 20
210.7780077926
 30
0.0
 11
317.6781983191
 21
165.7780077926
 31
0.0
  0
LINE
  5
D1
330
1F
100
AcDbEntity
  8
SLD-0
  6
Continuous
 62
   179
100
AcDbLine
 10
326.6781983191
 20
170.2780077926
 30
0.0
 11
353.6781983191
 21
170.2780077926
 31
0.0
  0
LINE
  5
D2
330
1F
100
AcDbEntity
  8
SLD-0
  6
Continuous
 62
   179
100
AcDbLine
 10
353.6781983191
 20
206.2780077926
 30
0.0
 11
326.6781983191
 21
206.2780077926
 31
0.0
  0
LINE
  5
D3
330
1F
100
AcDbEntity
  8
SLD-0
  6
Continuous
 62
   179
100
AcDbLine
 10
100.0828493191
 20
210.7780077926
 30
0.0
 11
100.0828493191
 21
165.7780077926
 31
0.0
  0
LINE
  5
D4
330
1F
100
AcDbEntity
  8
SLD-0
  6
Continuous
 62
   179
100
AcDbLine
 10
100.0828493191
 20
165.7780077926
 30
0.0
 11
55.0828493191
 21
165.7780077926
 31
0.0
  0
LINE
  5
D5
330
1F
100
AcDbEntity
  8
SLD-0
  6
Continuous
 62
   179
100
AcDbLine
 10
55.0828493191
 20
165.7780077926
 30
0.0
 11
55.0828493191
 21
210.7780077926
 31
0.0
  0
LINE
  5
D6
330
1F
100
AcDbEntity
  8
SLD-0
  6
Continuous
 62
   179
100
AcDbLine
 10
55.0828493191
 20
210.7780077926
 30
0.0
 11
100.0828493191
 21
210.7780077926
 31
0.0
  0
LINE
  5
D7
330
1F
100
AcDbEntity
  8
SLD-0
  6
Continuous
 62
   179
100
AcDbLine
 10
90.5828490586
 20
197.5209336059
 30
0.0
 11
90.5828490586
 21
179.0350816059
 31
0.0
  0
LINE
  5
D8
330
1F
100
AcDbEntity
  8
SLD-0
  6
Continuous
 62
   179
100
AcDbLine
 10
90.5828493191
 20
178.2780077926
 30
0.0
 11
83.5828493191
 21
178.2780077926
 31
0.0
  0
LINE
  5
D9
330
1F
100
AcDbEntity
  8
SLD-0
  6
Continuous
 62
   179
100
AcDbLine
 10
83.5828493191
 20
186.2780077926
 30
0.0
 11
71.5828493191
 21
186.2780077926
 31
0.0
  0
LINE
  5
DA
330
1F
100
AcDbEntity
  8
SLD-0
  6
Continuous
 62
   179
100
AcDbLine
 10
71.5828493191
 20
190.2780077926
 30
0.0
 11
83.5828493191
 21
190.2780077926
 31
0.0
  0
LINE
  5
DB
330
1F
100
AcDbEntity
  8
SLD-0
  6
Continuous
 62
   179
100
AcDbLine
 10
91.2828493191
 20
190.2780077926
 30
0.0
 11
93.5828493191
 21
190.2780077926
 31
0.0
  0
LINE
  5
DC
330
1F
100
AcDbEntity
  8
SLD-0
  6
Continuous
 62
   179
100
AcDbLine
 10
93.5828493191
 20
190.2780077926
 30
0.0
 11
94.0828493191
 21
189.7780077926
 31
0.0
  0
LINE
  5
DD
330
1F
100
AcDbEntity
  8
SLD-0
  6
Continuous
 62
   179
100
AcDbLine
 10
94.0828493191
 20
189.7780077926
 30
0.0
 11
94.0828493191
 21
186.7780077926
 31
0.0
  0
LINE
  5
DE
330
1F
100
AcDbEntity
  8
SLD-0
  6
Continuous
 62
   179
100
AcDbLine
 10
94.0828493191
 20
186.7780077926
 30
0.0
 11
93.5828493191
 21
186.2780077926
 31
0.0
  0
LINE
  5
DF
330
1F
100
AcDbEntity
  8
SLD-0
  6
Continuous
 62
   179
100
AcDbLine
 10
93.5828493191
 20
186.2780077926
 30
0.0
 11
91.2828493191
 21
186.2780077926
 31
0.0
  0
LINE
  5
E0
330
1F
100
AcDbEntity
  8
SLD-0
  6
Continuous
 62
   179
100
AcDbLine
 10
91.7828493191
 20
186.2780077926
 30
0.0
 11
91.7828493191
 21
180.4780077926
 31
0.0
  0
LINE
  5
E1
330
1F
100
AcDbEntity
  8
SLD-0
  6
Continuous
 62
   179
100
AcDbLine
 10
91.7828493191
 20
180.4780077926
 30
0.0
 11
92.7828493191
 21
180.4780077926
 31
0.0
  0
LINE
  5
E2
330
1F
100
AcDbEntity
  8
SLD-0
  6
Continuous
 62
   179
100
AcDbLine
 10
92.7828493191
 20
180.4780077926
 30
0.0
 11
92.7828493191
 21
186.2780077926
 31
0.0
  0
LINE
  5
E3
330
1F
100
AcDbEntity
  8
SLD-0
  6
Continuous
 62
   179
100
AcDbLine
 10
93.5828493191
 20
186.2780077926
 30
0.0
 11
93.5828493191
 21
190.2780077926
 31
0.0
  0
LINE
  5
E4
330
1F
100
AcDbEntity
  8
SLD-0
  6
Continuous
 62
   179
100
AcDbLine
 10
92.7828493191
 20
190.2780077926
 30
0.0
 11
92.7828493191
 21
196.2780077926
 31
0.0
  0
LINE
  5
E5
330
1F
100
AcDbEntity
  8
SLD-0
  6
Continuous
 62
   179
100
AcDbLine
 10
91.7828493191
 20
196.2780077926
 30
0.0
 11
91.7828493191
 21
190.2780077926
 31
0.0
  0
LINE
  5
E6
330
1F
100
AcDbEntity
  8
SLD-0
  6
Continuous
 62
   179
100
AcDbLine
 10
91.2828493191
 20
193.4780077926
 30
0.0
 11
91.2828493191
 21
183.0780077926
 31
0.0
  0
LINE
  5
E7
330
1F
100
AcDbEntity
  8
SLD-0
  6
Continuous
 62
   179
100
AcDbLine
 10
91.2828493191
 20
183.0780077926
 30
0.0
 11
90.9828493191
 21
182.7780077926
 31
0.0
  0
LINE
  5
E8
330
1F
100
AcDbEntity
  8
SLD-0
  6
Continuous
 62
   179
100
AcDbLine
 10
90.9828493191
 20
182.7780077926
 30
0.0
 11
90.5828493191
 21
182.7780077926
 31
0.0
  0
LINE
  5
E9
330
1F
100
AcDbEntity
  8
SLD-0
  6
Continuous
 62
   179
100
AcDbLine
 10
90.9828493191
 20
182.7780077926
 30
0.0
 11
90.9828493191
 21
193.7780077926
 31
0.0
  0
LINE
  5
EA
330
1F
100
AcDbEntity
  8
SLD-0
  6
Continuous
 62
   179
100
AcDbLine
 10
90.9828493191
 20
193.7780077926
 30
0.0
 11
91.2828493191
 21
193.4780077926
 31
0.0
  0
LINE
  5
EB
330
1F
100
AcDbEntity
  8
SLD-0
  6
Continuous
 62
   179
100
AcDbLine
 10
90.9828493191
 20
193.7780077926
 30
0.0
 11
90.5828493191
 21
193.7780077926
 31
0.0
  0
LINE
  5
EC
330
1F
100
AcDbEntity
  8
SLD-0
  6
Continuous
 62
   179
100
AcDbLine
 10
90.5828493191
 20
198.2780077926
 30
0.0
 11
83.5828493191
 21
198.2780077926
 31
0.0
  0
LINE
  5
ED
330
1F
100
AcDbEntity
  8
SLD-0
  6
Continuous
 62
   179
100
AcDbLine
 10
71.5828493191
 20
210.7780077926
 30
0.0
 11
71.5828493191
 21
165.7780077926
 31
0.0
  0
LINE
  5
EE
330
1F
100
AcDbEntity
  8
SLD-0
  6
Continuous
 62
   179
100
AcDbLine
 10
83.5828493191
 20
165.7780077926
 30
0.0
 11
83.5828493191
 21
210.7780077926
 31
0.0
  0
LINE
  5
EF
330
1F
100
AcDbEntity
  8
SLD-0
  6
Continuous
 62
   179
100
AcDbLine
 10
71.5828493191
 20
198.2780077926
 30
0.0
 11
64.5828493191
 21
198.2780077926
 31
0.0
  0
LINE
  5
F0
330
1F
100
AcDbEntity
  8
SLD-0
  6
Continuous
 62
   179
100
AcDbLine
 10
64.5828495796
 20
197.5209336059
 30
0.0
 11
64.5828495796
 21
179.0350816059
 31
0.0
  0
LINE
  5
F1
330
1F
100
AcDbEntity
  8
SLD-0
  6
Continuous
 62
   179
100
AcDbLine
 10
64.5828493191
 20
178.2780077926
 30
0.0
 11
71.5828493191
 21
178.2780077926
 31
0.0
  0
LINE
  5
F2
330
1F
100
AcDbEntity
  8
SLD-0
  6
Continuous
 62
   179
100
AcDbLine
 10
64.5828493191
 20
182.7780077926
 30
0.0
 11
64.1828493191
 21
182.7780077926
 31
0.0
  0
LINE
  5
F3
330
1F
100
AcDbEntity
  8
SLD-0
  6
Continuous
 62
   179
100
AcDbLine
 10
64.1828493191
 20
182.7780077926
 30
0.0
 11
64.1828493191
 21
193.7780077926
 31
0.0
  0
LINE
  5
F4
330
1F
100
AcDbEntity
  8
SLD-0
  6
Continuous
 62
   179
100
AcDbLine
 10
64.1828493191
 20
193.7780077926
 30
0.0
 11
63.8828493191
 21
193.4780077926
 31
0.0
  0
LINE
  5
F5
330
1F
100
AcDbEntity
  8
SLD-0
  6
Continuous
 62
   179
100
AcDbLine
 10
63.8828493191
 20
193.4780077926
 30
0.0
 11
63.8828493191
 21
183.0780077926
 31
0.0
  0
LINE
  5
F6
330
1F
100
AcDbEntity
  8
SLD-0
  6
Continuous
 62
   179
100
AcDbLine
 10
63.8828493191
 20
183.0780077926
 30
0.0
 11
64.1828493191
 21
182.7780077926
 31
0.0
  0
LINE
  5
F7
330
1F
100
AcDbEntity
  8
SLD-0
  6
Continuous
 62
   179
100
AcDbLine
 10
62.3828493191
 20
180.2780077926
 30
0.0
 11
62.3828493191
 21
186.2780077926
 31
0.0
  0
LINE
  5
F8
330
1F
100
AcDbEntity
  8
SLD-0
  6
Continuous
 62
   179
100
AcDbLine
 10
61.5828493191
 20
186.2780077926
 30
0.0
 11
61.0828493191
 21
186.7780077926
 31
0.0
  0
LINE
  5
F9
330
1F
100
AcDbEntity
  8
SLD-0
  6
Continuous
 62
   179
100
AcDbLine
 10
61.0828493191
 20
186.7780077926
 30
0.0
 11
61.0828493191
 21
189.7780077926
 31
0.0
  0
LINE
  5
FA
330
1F
100
AcDbEntity
  8
SLD-0
  6
Continuous
 62
   179
100
AcDbLine
 10
61.0828493191
 20
189.7780077926
 30
0.0
 11
61.5828493191
 21
190.2780077926
 31
0.0
  0
LINE
  5
FB
330
1F
100
AcDbEntity
  8
SLD-0
  6
Continuous
 62
   179
100
AcDbLine
 10
61.5828493191
 20
190.2780077926
 30
0.0
 11
61.5828493191
 21
186.2780077926
 31
0.0
  0
LINE
  5
FC
330
1F
100
AcDbEntity
  8
SLD-0
  6
Continuous
 62
   179
100
AcDbLine
 10
61.5828493191
 20
186.2780077926
 30
0.0
 11
63.8828493191
 21
186.2780077926
 31
0.0
  0
LINE
  5
FD
330
1F
100
AcDbEntity
  8
SLD-0
  6
Continuous
 62
   179
100
AcDbLine
 10
63.3828493191
 20
186.2780077926
 30
0.0
 11
63.3828493191
 21
180.2780077926
 31
0.0
  0
LINE
  5
FE
330
1F
100
AcDbEntity
  8
SLD-0
  6
Continuous
 62
   179
100
AcDbLine
 10
63.3828493191
 20
190.2780077926
 30
0.0
 11
63.3828493191
 21
196.0780077926
 31
0.0
  0
LINE
  5
FF
330
1F
100
AcDbEntity
  8
SLD-0
  6
Continuous
 62
   179
100
AcDbLine
 10
63.3828493191
 20
196.0780077926
 30
0.0
 11
62.3828493191
 21
196.0780077926
 31
0.0
  0
LINE
  5
100
330
1F
100
AcDbEntity
  8
SLD-0
  6
Continuous
 62
   179
100
AcDbLine
 10
62.3828493191
 20
196.0780077926
 30
0.0
 11
62.3828493191
 21
190.2780077926
 31
0.0
  0
LINE
  5
101
330
1F
100
AcDbEntity
  8
SLD-0
  6
Continuous
 62
   179
100
AcDbLine
 10
61.5828493191
 20
190.2780077926
 30
0.0
 11
63.8828493191
 21
190.2780077926
 31
0.0
  0
LINE
  5
102
330
1F
100
AcDbEntity
  8
SLD-0
  6
Continuous
 62
   179
100
AcDbLine
 10
64.1828493191
 20
193.7780077926
 30
0.0
 11
64.5828493191
 21
193.7780077926
 31
0.0
  0
LINE
  5
103
330
1F
100
AcDbEntity
  8
SLD-0
  6
CENTER
 62
   179
100
AcDbLine
 10
219.4992373191
 20
71.1032247926
 30
0.0
 11
219.4992373191
 21
82.8107947926
 31
0.0
  0
LINE
  5
104
330
1F
100
AcDbEntity
  8
SLD-0
  6
CENTER
 62
   179
100
AcDbLine
 10
226.0395863191
 20
78.6322937926
 30
0.0
 11
173.1559573191
 21
78.6322937926
 31
0.0
  0
LINE
  5
105
330
1F
100
AcDbEntity
  8
SLD-0
  6
CENTER
 62
   179
100
AcDbLine
 10
179.4992373191
 20
83.2986107926
 30
0.0
 11
179.4992373191
 21
70.1275937926
 31
0.0
  0
LINE
  5
106
330
1F
100
AcDbEntity
  8
SLD-0
  6
CENTER
 62
   179
100
AcDbLine
 10
143.4992373191
 20
77.8642137926
 30
0.0
 11
143.4992373191
 21
115.1176327926
 31
0.0
  0
LINE
  5
107
330
1F
100
AcDbEntity
  8
SLD-0
  6
CENTER
 62
   179
100
AcDbLine
 10
157.5579923191
 20
111.6322937926
 30
0.0
 11
166.6992373191
 21
111.6322937926
 31
0.0
  0
LINE
  5
108
330
1F
100
AcDbEntity
  8
SLD-0
  6
CENTER
 62
   179
100
AcDbLine
 10
162.4992373191
 20
106.0357357926
 30
0.0
 11
162.4992373191
 21
117.2610347926
 31
0.0
  0
LINE
  5
109
330
1F
100
AcDbEntity
  8
SLD-0
  6
CENTER
 62
   179
100
AcDbLine
 10
173.1559573191
 20
114.6322937926
 30
0.0
 11
226.0395863191
 21
114.6322937926
 31
0.0
  0
LINE
  5
10A
330
1F
100
AcDbEntity
  8
SLD-0
  6
CENTER
 62
   179
100
AcDbLine
 10
219.4992373191
 20
110.4537917926
 30
0.0
 11
219.4992373191
 21
122.1613627926
 31
0.0
  0
LINE
  5
10B
330
1F
100
AcDbEntity
  8
SLD-0
  6
CENTER
 62
   179
100
AcDbLine
 10
269.4665063191
 20
96.6322937926
 30
0.0
 11
131.6322853191
 21
96.6322937926
 31
0.0
  0
LINE
  5
10C
330
1F
100
AcDbEntity
  8
SLD-0
  6
CENTER
 62
   179
100
AcDbLine
 10
157.5579923191
 20
81.6322937926
 30
0.0
 11
166.6992373191
 21
81.6322937926
 31
0.0
  0
LINE
  5
10D
330
1F
100
AcDbEntity
  8
SLD-0
  6
CENTER
 62
   179
100
AcDbLine
 10
162.4992373191
 20
87.2288507926
 30
0.0
 11
162.4992373191
 21
76.0035527926
 31
0.0
  0
LINE
  5
10E
330
1F
100
AcDbEntity
  8
SLD-0
  6
CENTER
 62
   179
100
AcDbLine
 10
179.4992373191
 20
109.9659767926
 30
0.0
 11
179.4992373191
 21
120.8303687926
 31
0.0
  0
LINE
  5
10F
330
1F
100
AcDbEntity
  8
SLD-0
  6
CENTER
 62
   179
100
AcDbLine
 10
184.4992373191
 20
164.2444337926
 30
0.0
 11
184.4992373191
 21
175.1405787926
 31
0.0
  0
LINE
  5
110
330
1F
100
AcDbEntity
  8
SLD-0
  6
CENTER
 62
   179
100
AcDbLine
 10
177.0020943191
 20
170.2780077926
 30
0.0
 11
233.2855223191
 21
170.2780077926
 31
0.0
  0
LINE
  5
111
330
1F
100
AcDbEntity
  8
SLD-0
  6
CENTER
 62
   179
100
AcDbLine
 10
224.4992373191
 20
174.6468647926
 30
0.0
 11
224.4992373191
 21
164.5319787926
 31
0.0
  0
LINE
  5
112
330
1F
100
AcDbEntity
  8
SLD-0
  6
CENTER
 62
   179
100
AcDbLine
 10
246.1760303191
 20
194.1014367926
 30
0.0
 11
260.7674483191
 21
194.1014367926
 31
0.0
  0
LINE
  5
113
330
1F
100
AcDbEntity
  8
SLD-0
  6
CENTER
 62
   179
100
AcDbLine
 10
253.4992373191
 20
201.0771807926
 30
0.0
 11
253.4992373191
 21
186.9928007926
 31
0.0
  0
LINE
  5
114
330
1F
100
AcDbEntity
  8
SLD-0
  6
CENTER
 62
   179
100
AcDbLine
 10
269.9269713191
 20
188.2780077926
 30
0.0
 11
127.1149643191
 21
188.2780077926
 31
0.0
  0
LINE
  5
115
330
1F
100
AcDbEntity
  8
SLD-0
  6
CENTER
 62
   179
100
AcDbLine
 10
143.4992373191
 20
179.2007537926
 30
0.0
 11
143.4992373191
 21
198.1632767926
 31
0.0
  0
LINE
  5
116
330
1F
100
AcDbEntity
  8
SLD-0
  6
CENTER
 62
   179
100
AcDbLine
 10
177.0020943191
 20
206.2780077926
 30
0.0
 11
233.2855223191
 21
206.2780077926
 31
0.0
  0
LINE
  5
117
330
1F
100
AcDbEntity
  8
SLD-0
  6
CENTER
 62
   179
100
AcDbLine
 10
224.4992373191
 20
201.9091507926
 30
0.0
 11
224.4992373191
 21
213.4865957926
 31
0.0
  0
LINE
  5
118
330
1F
100
AcDbEntity
  8
SLD-0
  6
CENTER
 62
   179
100
AcDbLine
 10
314.0765053191
 20
195.2719357926
 30
0.0
 11
340.1781983191
 21
188.2780077926
 31
0.0
  0
LINE
  5
119
330
1F
100
AcDbEntity
  8
SLD-0
  6
CENTER
 62
   179
100
AcDbLine
 10
353.9817183191
 20
195.6876907926
 30
0.0
 11
347.5013483191
 21
202.1680617926
 31
0.0
  0
LINE
  5
11A
330
1F
100
AcDbEntity
  8
SLD-0
  6
CENTER
 62
   179
100
AcDbLine
 10
354.0021653191
 20
202.1019747926
 30
0.0
 11
326.5065913191
 21
174.6064017926
 31
0.0
  0
LINE
  5
11B
330
1F
100
AcDbEntity
  8
SLD-0
  6
CENTER
 62
   179
100
AcDbLine
 10
326.0236393191
 20
181.2193627926
 30
0.0
 11
334.0249133191
 21
173.2180897926
 31
0.0
  0
LINE
  5
11C
330
1F
100
AcDbEntity
  8
SLD-0
  6
CENTER
 62
   179
100
AcDbLine
 10
340.1781983191
 20
159.8292387926
 30
0.0
 11
340.1781983191
 21
217.0780097926
 31
0.0
  0
LINE
  5
11D
330
1F
100
AcDbEntity
  8
SLD-0
  6
CENTER
 62
   179
100
AcDbLine
 10
367.7545393191
 20
188.2780077926
 30
0.0
 11
312.4050163191
 21
188.2780077926
 31
0.0
  0
LINE
  5
11E
330
1F
100
AcDbEntity
  8
SLD-0
  6
CENTER
 62
   179
100
AcDbLine
 10
184.4992373191
 20
201.4154367926
 30
0.0
 11
184.4992373191
 21
213.0552777926
 31
0.0
  0
LINE
  5
11F
330
1F
100
AcDbEntity
  8
SLD-0
  6
CENTER
 62
   179
100
AcDbLine
 10
103.0646033191
 20
188.2780077926
 30
0.0
 11
51.3713303191
 21
188.2780077926
 31
0.0
  0
LINE
  5
120
330
1F
100
AcDbEntity
  8
SLD-0
  6
CENTER
 62
   179
100
AcDbLine
 10
77.5828493191
 20
162.5098947926
 30
0.0
 11
77.5828493191
 21
214.0511277926
 31
0.0
  0
LINE
  5
121
330
1F
100
AcDbEntity
  8
SLD-0
  6
Continuous
 62
   179
100
AcDbLine
 10
17.5
 20
11.5
 30
0.0
 11
402.5
 21
11.5
 31
0.0
  0
LINE
  5
122
330
1F
100
AcDbEntity
  8
SLD-0
  6
Continuous
 62
   179
100
AcDbLine
 10
17.5
 20
285.5
 30
0.0
 11
17.5
 21
11.5
 31
0.0
  0
LINE
  5
123
330
1F
100
AcDbEntity
  8
SLD-0
  6
Continuous
 62
   179
100
AcDbLine
 10
402.5
 20
285.5
 30
0.0
 11
402.5
 21
11.5
 31
0.0
  0
LINE
  5
124
330
1F
100
AcDbEntity
  8
SLD-0
  6
Continuous
 62
   179
100
AcDbLine
 10
17.5
 20
285.5
 30
0.0
 11
402.5
 21
285.5
 31
0.0
  0
LINE
  5
125
330
1F
100
AcDbEntity
  8
SLD-0
  6
Continuous
 62
   179
100
AcDbLine
 10
17.3
 20
11.3
 30
0.0
 11
402.7
 21
11.3
 31
0.0
  0
LINE
  5
126
330
1F
100
AcDbEntity
  8
SLD-0
  6
Continuous
 62
   179
100
AcDbLine
 10
17.3
 20
285.7
 30
0.0
 11
17.3
 21
11.3
 31
0.0
  0
LINE
  5
127
330
1F
100
AcDbEntity
  8
SLD-0
  6
Continuous
 62
   179
100
AcDbLine
 10
17.3
 20
285.7
 30
0.0
 11
402.7
 21
285.7
 31
0.0
  0
LINE
  5
128
330
1F
100
AcDbEntity
  8
SLD-0
  6
Continuous
 62
   179
100
AcDbLine
 10
402.7
 20
285.7
 30
0.0
 11
402.7
 21
11.3
 31
0.0
  0
LINE
  5
129
330
1F
100
AcDbEntity
  8
SLD-0
  6
Continuous
 62
   179
100
AcDbLine
 10
334.0
 20
50.0
 30
0.0
 11
334.0
 21
11.5
 31
0.0
  0
LINE
  5
12A
330
1F
100
AcDbEntity
  8
SLD-0
  6
Continuous
 62
   179
100
AcDbLine
 10
334.0
 20
24.0
 30
0.0
 11
402.5
 21
24.0
 31
0.0
  0
LINE
  5
12B
330
1F
100
AcDbEntity
  8
SLD-0
  6
Continuous
 62
   179
100
AcDbLine
 10
334.0
 20
36.5
 30
0.0
 11
402.5
 21
36.5
 31
0.0
  0
LINE
  5
12C
330
1F
100
AcDbEntity
  8
SLD-0
  6
Continuous
 62
   179
100
AcDbLine
 10
334.0
 20
50.0
 30
0.0
 11
402.5
 21
50.0
 31
0.0
  0
LINE
  5
12D
330
1F
100
AcDbEntity
  8
SLD-0
  6
Continuous
 62
   179
100
AcDbLine
 10
253.4992373191
 20
198.3514367926
 30
0.0
 11
253.1414623191
 21
198.3352637926
 31
0.0
  0
LINE
  5
12E
330
1F
100
AcDbEntity
  8
SLD-0
  6
Continuous
 62
   179
100
AcDbLine
 10
253.1414623191
 20
198.3352637926
 30
0.0
 11
252.7864113191
 21
198.2868687926
 31
0.0
  0
LINE
  5
12F
330
1F
100
AcDbEntity
  8
SLD-0
  6
Continuous
 62
   179
100
AcDbLine
 10
252.7864113191
 20
198.2868687926
 30
0.0
 11
252.4367853191
 21
198.2066207926
 31
0.0
  0
LINE
  5
130
330
1F
100
AcDbEntity
  8
SLD-0
  6
Continuous
 62
   179
100
AcDbLine
 10
252.4367853191
 20
198.2066207926
 30
0.0
 11
252.0952443191
 21
198.0951297926
 31
0.0
  0
LINE
  5
131
330
1F
100
AcDbEntity
  8
SLD-0
  6
Continuous
 62
   179
100
AcDbLine
 10
252.0952443191
 20
198.0951297926
 30
0.0
 11
251.7643893191
 21
197.9532447926
 31
0.0
  0
LINE
  5
132
330
1F
100
AcDbEntity
  8
SLD-0
  6
Continuous
 62
   179
100
AcDbLine
 10
251.7643893191
 20
197.9532447926
 30
0.0
 11
251.4467373191
 21
197.7820447926
 31
0.0
  0
LINE
  5
133
330
1F
100
AcDbEntity
  8
SLD-0
  6
Continuous
 62
   179
100
AcDbLine
 10
251.4467373191
 20
197.7820447926
 30
0.0
 11
251.1447053191
 21
197.5828327926
 31
0.0
  0
LINE
  5
134
330
1F
100
AcDbEntity
  8
SLD-0
  6
Continuous
 62
   179
100
AcDbLine
 10
251.1447053191
 20
197.5828327926
 30
0.0
 11
250.8605943191
 21
197.3571247926
 31
0.0
  0
LINE
  5
135
330
1F
100
AcDbEntity
  8
SLD-0
  6
Continuous
 62
   179
100
AcDbLine
 10
250.8605943191
 20
197.3571247926
 30
0.0
 11
250.5965633191
 21
197.1066397926
 31
0.0
  0
LINE
  5
136
330
1F
100
AcDbEntity
  8
SLD-0
  6
Continuous
 62
   179
100
AcDbLine
 10
250.5965633191
 20
197.1066397926
 30
0.0
 11
250.3546243191
 21
196.8332837926
 31
0.0
  0
LINE
  5
137
330
1F
100
AcDbEntity
  8
SLD-0
  6
Continuous
 62
   179
100
AcDbLine
 10
250.3546243191
 20
196.8332837926
 30
0.0
 11
250.1366183191
 21
196.5391357926
 31
0.0
  0
LINE
  5
138
330
1F
100
AcDbEntity
  8
SLD-0
  6
Continuous
 62
   179
100
AcDbLine
 10
250.1366183191
 20
196.5391357926
 30
0.0
 11
249.9442023191
 21
196.2264367926
 31
0.0
  0
LINE
  5
139
330
1F
100
AcDbEntity
  8
SLD-0
  6
Continuous
 62
   179
100
AcDbLine
 10
249.9442023191
 20
196.2264367926
 30
0.0
 11
249.7788433191
 21
195.8975637926
 31
0.0
  0
LINE
  5
13A
330
1F
100
AcDbEntity
  8
SLD-0
  6
Continuous
 62
   179
100
AcDbLine
 10
249.7788433191
 20
195.8975637926
 30
0.0
 11
249.6417983191
 21
195.5550217926
 31
0.0
  0
LINE
  5
13B
330
1F
100
AcDbEntity
  8
SLD-0
  6
Continuous
 62
   179
100
AcDbLine
 10
249.6417983191
 20
195.5550217926
 30
0.0
 11
249.5341113191
 21
195.2014167926
 31
0.0
  0
LINE
  5
13C
330
1F
100
AcDbEntity
  8
SLD-0
  6
Continuous
 62
   179
100
AcDbLine
 10
249.5341113191
 20
195.2014167926
 30
0.0
 11
249.4566013191
 21
194.8394407926
 31
0.0
  0
LINE
  5
13D
330
1F
100
AcDbEntity
  8
SLD-0
  6
Continuous
 62
   179
100
AcDbLine
 10
249.4566013191
 20
194.8394407926
 30
0.0
 11
249.4098573191
 21
194.4718477926
 31
0.0
  0
LINE
  5
13E
330
1F
100
AcDbEntity
  8
SLD-0
  6
Continuous
 62
   179
100
AcDbLine
 10
249.4098573191
 20
194.4718477926
 30
0.0
 11
249.3942373191
 21
194.1014367926
 31
0.0
  0
LINE
  5
13F
330
1F
100
AcDbEntity
  8
SLD-0
  6
Continuous
 62
   179
100
AcDbLine
 10
249.3942373191
 20
194.1014367926
 30
0.0
 11
249.4098573191
 21
193.7310247926
 31
0.0
  0
LINE
  5
140
330
1F
100
AcDbEntity
  8
SLD-0
  6
Continuous
 62
   179
100
AcDbLine
 10
249.4098573191
 20
193.7310247926
 30
0.0
 11
249.4566013191
 21
193.3634317926
 31
0.0
  0
LINE
  5
141
330
1F
100
AcDbEntity
  8
SLD-0
  6
Continuous
 62
   179
100
AcDbLine
 10
249.4566013191
 20
193.3634317926
 30
0.0
 11
249.5341113191
 21
193.0014557926
 31
0.0
  0
LINE
  5
142
330
1F
100
AcDbEntity
  8
SLD-0
  6
Continuous
 62
   179
100
AcDbLine
 10
249.5341113191
 20
193.0014557926
 30
0.0
 11
249.6417983191
 21
192.6478507926
 31
0.0
  0
LINE
  5
143
330
1F
100
AcDbEntity
  8
SLD-0
  6
Continuous
 62
   179
100
AcDbLine
 10
249.6417983191
 20
192.6478507926
 30
0.0
 11
249.7788433191
 21
192.3053087926
 31
0.0
  0
LINE
  5
144
330
1F
100
AcDbEntity
  8
SLD-0
  6
Continuous
 62
   179
100
AcDbLine
 10
249.7788433191
 20
192.3053087926
 30
0.0
 11
249.9442023191
 21
191.9764367926
 31
0.0
  0
LINE
  5
145
330
1F
100
AcDbEntity
  8
SLD-0
  6
Continuous
 62
   179
100
AcDbLine
 10
249.9442023191
 20
191.9764367926
 30
0.0
 11
250.1366183191
 21
191.6637367926
 31
0.0
  0
LINE
  5
146
330
1F
100
AcDbEntity
  8
SLD-0
  6
Continuous
 62
   179
100
AcDbLine
 10
250.1366183191
 20
191.6637367926
 30
0.0
 11
250.3546243191
 21
191.3695887926
 31
0.0
  0
LINE
  5
147
330
1F
100
AcDbEntity
  8
SLD-0
  6
Continuous
 62
   179
100
AcDbLine
 10
250.3546243191
 20
191.3695887926
 30
0.0
 11
250.5965633191
 21
191.0962327926
 31
0.0
  0
LINE
  5
148
330
1F
100
AcDbEntity
  8
SLD-0
  6
Continuous
 62
   179
100
AcDbLine
 10
250.5965633191
 20
191.0962327926
 30
0.0
 11
250.8605943191
 21
190.8457477926
 31
0.0
  0
LINE
  5
149
330
1F
100
AcDbEntity
  8
SLD-0
  6
Continuous
 62
   179
100
AcDbLine
 10
250.8605943191
 20
190.8457477926
 30
0.0
 11
251.1447053191
 21
190.6200397926
 31
0.0
  0
LINE
  5
14A
330
1F
100
AcDbEntity
  8
SLD-0
  6
Continuous
 62
   179
100
AcDbLine
 10
251.1447053191
 20
190.6200397926
 30
0.0
 11
251.4467373191
 21
190.4208287926
 31
0.0
  0
LINE
  5
14B
330
1F
100
AcDbEntity
  8
SLD-0
  6
Continuous
 62
   179
100
AcDbLine
 10
251.4467373191
 20
190.4208287926
 30
0.0
 11
251.7643893191
 21
190.2496277926
 31
0.0
  0
LINE
  5
14C
330
1F
100
AcDbEntity
  8
SLD-0
  6
Continuous
 62
   179
100
AcDbLine
 10
251.7643893191
 20
190.2496277926
 30
0.0
 11
252.0952443191
 21
190.1077427926
 31
0.0
  0
LINE
  5
14D
330
1F
100
AcDbEntity
  8
SLD-0
  6
Continuous
 62
   179
100
AcDbLine
 10
252.0952443191
 20
190.1077427926
 30
0.0
 11
252.4367853191
 21
189.9962517926
 31
0.0
  0
LINE
  5
14E
330
1F
100
AcDbEntity
  8
SLD-0
  6
Continuous
 62
   179
100
AcDbLine
 10
252.4367853191
 20
189.9962517926
 30
0.0
 11
252.7864113191
 21
189.9160037926
 31
0.0
  0
LINE
  5
14F
330
1F
100
AcDbEntity
  8
SLD-0
  6
Continuous
 62
   179
100
AcDbLine
 10
252.7864113191
 20
189.9160037926
 30
0.0
 11
253.1414623191
 21
189.8676087926
 31
0.0
  0
LINE
  5
150
330
1F
100
AcDbEntity
  8
SLD-0
  6
Continuous
 62
   179
100
AcDbLine
 10
253.1414623191
 20
189.8676087926
 30
0.0
 11
253.4992373191
 21
189.8514367926
 31
0.0
  0
LINE
  5
151
330
1F
100
AcDbEntity
  8
SLD-0
  6
Continuous
 62
   179
100
AcDbLine
 10
253.4992373191
 20
189.8514367926
 30
0.0
 11
253.8570113191
 21
189.8676087926
 31
0.0
  0
LINE
  5
152
330
1F
100
AcDbEntity
  8
SLD-0
  6
Continuous
 62
   179
100
AcDbLine
 10
253.8570113191
 20
189.8676087926
 30
0.0
 11
254.2120623191
 21
189.9160037926
 31
0.0
  0
LINE
  5
153
330
1F
100
AcDbEntity
  8
SLD-0
  6
Continuous
 62
   179
100
AcDbLine
 10
254.2120623191
 20
189.9160037926
 30
0.0
 11
254.5616893191
 21
189.9962517926
 31
0.0
  0
LINE
  5
154
330
1F
100
AcDbEntity
  8
SLD-0
  6
Continuous
 62
   179
100
AcDbLine
 10
254.5616893191
 20
189.9962517926
 30
0.0
 11
254.9032293191
 21
190.1077427926
 31
0.0
  0
LINE
  5
155
330
1F
100
AcDbEntity
  8
SLD-0
  6
Continuous
 62
   179
100
AcDbLine
 10
254.9032293191
 20
190.1077427926
 30
0.0
 11
255.2340853191
 21
190.2496277926
 31
0.0
  0
LINE
  5
156
330
1F
100
AcDbEntity
  8
SLD-0
  6
Continuous
 62
   179
100
AcDbLine
 10
255.2340853191
 20
190.2496277926
 30
0.0
 11
255.5517373191
 21
190.4208287926
 31
0.0
  0
LINE
  5
157
330
1F
100
AcDbEntity
  8
SLD-0
  6
Continuous
 62
   179
100
AcDbLine
 10
255.5517373191
 20
190.4208287926
 30
0.0
 11
255.8537683191
 21
190.6200397926
 31
0.0
  0
LINE
  5
158
330
1F
100
AcDbEntity
  8
SLD-0
  6
Continuous
 62
   179
100
AcDbLine
 10
255.8537683191
 20
190.6200397926
 30
0.0
 11
256.1378803191
 21
190.8457477926
 31
0.0
  0
LINE
  5
159
330
1F
100
AcDbEntity
  8
SLD-0
  6
Continuous
 62
   179
100
AcDbLine
 10
256.1378803191
 20
190.8457477926
 30
0.0
 11
256.4019103191
 21
191.0962327926
 31
0.0
  0
LINE
  5
15A
330
1F
100
AcDbEntity
  8
SLD-0
  6
Continuous
 62
   179
100
AcDbLine
 10
256.4019103191
 20
191.0962327926
 30
0.0
 11
256.6438493191
 21
191.3695887926
 31
0.0
  0
LINE
  5
15B
330
1F
100
AcDbEntity
  8
SLD-0
  6
Continuous
 62
   179
100
AcDbLine
 10
256.6438493191
 20
191.3695887926
 30
0.0
 11
256.8618563191
 21
191.6637367926
 31
0.0
  0
LINE
  5
15C
330
1F
100
AcDbEntity
  8
SLD-0
  6
Continuous
 62
   179
100
AcDbLine
 10
256.8618563191
 20
191.6637367926
 30
0.0
 11
257.0542713191
 21
191.9764367926
 31
0.0
  0
LINE
  5
15D
330
1F
100
AcDbEntity
  8
SLD-0
  6
Continuous
 62
   179
100
AcDbLine
 10
257.0542713191
 20
191.9764367926
 30
0.0
 11
257.2196303191
 21
192.3053087926
 31
0.0
  0
LINE
  5
15E
330
1F
100
AcDbEntity
  8
SLD-0
  6
Continuous
 62
   179
100
AcDbLine
 10
257.2196303191
 20
192.3053087926
 30
0.0
 11
257.3566753191
 21
192.6478507926
 31
0.0
  0
LINE
  5
15F
330
1F
100
AcDbEntity
  8
SLD-0
  6
Continuous
 62
   179
100
AcDbLine
 10
257.3566753191
 20
192.6478507926
 30
0.0
 11
257.4643623191
 21
193.0014557926
 31
0.0
  0
LINE
  5
160
330
1F
100
AcDbEntity
  8
SLD-0
  6
Continuous
 62
   179
100
AcDbLine
 10
257.4643623191
 20
193.0014557926
 30
0.0
 11
257.5418733191
 21
193.3634317926
 31
0.0
  0
LINE
  5
161
330
1F
100
AcDbEntity
  8
SLD-0
  6
Continuous
 62
   179
100
AcDbLine
 10
257.5418733191
 20
193.3634317926
 30
0.0
 11
257.5886163191
 21
193.7310247926
 31
0.0
  0
LINE
  5
162
330
1F
100
AcDbEntity
  8
SLD-0
  6
Continuous
 62
   179
100
AcDbLine
 10
257.5886163191
 20
193.7310247926
 30
0.0
 11
257.6042373191
 21
194.1014367926
 31
0.0
  0
LINE
  5
163
330
1F
100
AcDbEntity
  8
SLD-0
  6
Continuous
 62
   179
100
AcDbLine
 10
257.6042373191
 20
194.1014367926
 30
0.0
 11
257.5886163191
 21
194.4718477926
 31
0.0
  0
LINE
  5
164
330
1F
100
AcDbEntity
  8
SLD-0
  6
Continuous
 62
   179
100
AcDbLine
 10
257.5886163191
 20
194.4718477926
 30
0.0
 11
257.5418733191
 21
194.8394407926
 31
0.0
  0
LINE
  5
165
330
1F
100
AcDbEntity
  8
SLD-0
  6
Continuous
 62
   179
100
AcDbLine
 10
257.5418733191
 20
194.8394407926
 30
0.0
 11
257.4643623191
 21
195.2014167926
 31
0.0
  0
LINE
  5
166
330
1F
100
AcDbEntity
  8
SLD-0
  6
Continuous
 62
   179
100
AcDbLine
 10
257.4643623191
 20
195.2014167926
 30
0.0
 11
257.3566753191
 21
195.5550217926
 31
0.0
  0
LINE
  5
167
330
1F
100
AcDbEntity
  8
SLD-0
  6
Continuous
 62
   179
100
AcDbLine
 10
257.3566753191
 20
195.5550217926
 30
0.0
 11
257.2196303191
 21
195.8975637926
 31
0.0
  0
LINE
  5
168
330
1F
100
AcDbEntity
  8
SLD-0
  6
Continuous
 62
   179
100
AcDbLine
 10
257.2196303191
 20
195.8975637926
 30
0.0
 11
257.0542713191
 21
196.2264367926
 31
0.0
  0
LINE
  5
169
330
1F
100
AcDbEntity
  8
SLD-0
  6
Continuous
 62
   179
100
AcDbLine
 10
257.0542713191
 20
196.2264367926
 30
0.0
 11
256.8618563191
 21
196.5391357926
 31
0.0
  0
LINE
  5
16A
330
1F
100
AcDbEntity
  8
SLD-0
  6
Continuous
 62
   179
100
AcDbLine
 10
256.8618563191
 20
196.5391357926
 30
0.0
 11
256.6438493191
 21
196.8332837926
 31
0.0
  0
LINE
  5
16B
330
1F
100
AcDbEntity
  8
SLD-0
  6
Continuous
 62
   179
100
AcDbLine
 10
256.6438493191
 20
196.8332837926
 30
0.0
 11
256.4019103191
 21
197.1066397926
 31
0.0
  0
LINE
  5
16C
330
1F
100
AcDbEntity
  8
SLD-0
  6
Continuous
 62
   179
100
AcDbLine
 10
256.4019103191
 20
197.1066397926
 30
0.0
 11
256.1378803191
 21
197.3571247926
 31
0.0
  0
LINE
  5
16D
330
1F
100
AcDbEntity
  8
SLD-0
  6
Continuous
 62
   179
100
AcDbLine
 10
256.1378803191
 20
197.3571247926
 30
0.0
 11
255.8537683191
 21
197.5828327926
 31
0.0
  0
LINE
  5
16E
330
1F
100
AcDbEntity
  8
SLD-0
  6
Continuous
 62
   179
100
AcDbLine
 10
255.8537683191
 20
197.5828327926
 30
0.0
 11
255.5517373191
 21
197.7820447926
 31
0.0
  0
LINE
  5
16F
330
1F
100
AcDbEntity
  8
SLD-0
  6
Continuous
 62
   179
100
AcDbLine
 10
255.5517373191
 20
197.7820447926
 30
0.0
 11
255.2340853191
 21
197.9532447926
 31
0.0
  0
LINE
  5
170
330
1F
100
AcDbEntity
  8
SLD-0
  6
Continuous
 62
   179
100
AcDbLine
 10
255.2340853191
 20
197.9532447926
 30
0.0
 11
254.9032293191
 21
198.0951297926
 31
0.0
  0
LINE
  5
171
330
1F
100
AcDbEntity
  8
SLD-0
  6
Continuous
 62
   179
100
AcDbLine
 10
254.9032293191
 20
198.0951297926
 30
0.0
 11
254.5616893191
 21
198.2066207926
 31
0.0
  0
LINE
  5
172
330
1F
100
AcDbEntity
  8
SLD-0
  6
Continuous
 62
   179
100
AcDbLine
 10
254.5616893191
 20
198.2066207926
 30
0.0
 11
254.2120623191
 21
198.2868687926
 31
0.0
  0
LINE
  5
173
330
1F
100
AcDbEntity
  8
SLD-0
  6
Continuous
 62
   179
100
AcDbLine
 10
254.2120623191
 20
198.2868687926
 30
0.0
 11
253.8570113191
 21
198.3352637926
 31
0.0
  0
LINE
  5
174
330
1F
100
AcDbEntity
  8
SLD-0
  6
Continuous
 62
   179
100
AcDbLine
 10
253.8570113191
 20
198.3352637926
 30
0.0
 11
253.4992373191
 21
198.3514367926
 31
0.0
  0
LINE
  5
175
330
1F
100
AcDbEntity
  8
SLD-0
  6
Continuous
 62
   179
100
AcDbLine
 10
253.4992373191
 20
198.8514367926
 30
0.0
 11
253.0996283191
 21
198.8333607926
 31
0.0
  0
LINE
  5
176
330
1F
100
AcDbEntity
  8
SLD-0
  6
Continuous
 62
   179
100
AcDbLine
 10
253.0996283191
 20
198.8333607926
 30
0.0
 11
252.7030603191
 21
198.7792727926
 31
0.0
  0
LINE
  5
177
330
1F
100
AcDbEntity
  8
SLD-0
  6
Continuous
 62
   179
100
AcDbLine
 10
252.7030603191
 20
198.7792727926
 30
0.0
 11
252.3125513191
 21
198.6895837926
 31
0.0
  0
LINE
  5
178
330
1F
100
AcDbEntity
  8
SLD-0
  6
Continuous
 62
   179
100
AcDbLine
 10
252.3125513191
 20
198.6895837926
 30
0.0
 11
251.9310743191
 21
198.5649757926
 31
0.0
  0
LINE
  5
179
330
1F
100
AcDbEntity
  8
SLD-0
  6
Continuous
 62
   179
100
AcDbLine
 10
251.9310743191
 20
198.5649757926
 30
0.0
 11
251.5615323191
 21
198.4063987926
 31
0.0
  0
LINE
  5
17A
330
1F
100
AcDbEntity
  8
SLD-0
  6
Continuous
 62
   179
100
AcDbLine
 10
251.5615323191
 20
198.4063987926
 30
0.0
 11
251.2067373191
 21
198.2150567926
 31
0.0
  0
LINE
  5
17B
330
1F
100
AcDbEntity
  8
SLD-0
  6
Continuous
 62
   179
100
AcDbLine
 10
251.2067373191
 20
198.2150567926
 30
0.0
 11
250.8693893191
 21
197.9924087926
 31
0.0
  0
LINE
  5
17C
330
1F
100
AcDbEntity
  8
SLD-0
  6
Continuous
 62
   179
100
AcDbLine
 10
250.8693893191
 20
197.9924087926
 30
0.0
 11
250.5520553191
 21
197.7401477926
 31
0.0
  0
LINE
  5
17D
330
1F
100
AcDbEntity
  8
SLD-0
  6
Continuous
 62
   179
100
AcDbLine
 10
250.5520553191
 20
197.7401477926
 30
0.0
 11
250.2571523191
 21
197.4601937926
 31
0.0
  0
LINE
  5
17E
330
1F
100
AcDbEntity
  8
SLD-0
  6
Continuous
 62
   179
100
AcDbLine
 10
250.2571523191
 20
197.4601937926
 30
0.0
 11
249.9869233191
 21
197.1546777926
 31
0.0
  0
LINE
  5
17F
330
1F
100
AcDbEntity
  8
SLD-0
  6
Continuous
 62
   179
100
AcDbLine
 10
249.9869233191
 20
197.1546777926
 30
0.0
 11
249.7434253191
 21
196.8259247926
 31
0.0
  0
LINE
  5
180
330
1F
100
AcDbEntity
  8
SLD-0
  6
Continuous
 62
   179
100
AcDbLine
 10
249.7434253191
 20
196.8259247926
 30
0.0
 11
249.5285103191
 21
196.4764367926
 31
0.0
  0
LINE
  5
181
330
1F
100
AcDbEntity
  8
SLD-0
  6
Continuous
 62
   179
100
AcDbLine
 10
249.5285103191
 20
196.4764367926
 30
0.0
 11
249.3438153191
 21
196.1088727926
 31
0.0
  0
LINE
  5
182
330
1F
100
AcDbEntity
  8
SLD-0
  6
Continuous
 62
   179
100
AcDbLine
 10
249.3438153191
 20
196.1088727926
 30
0.0
 11
249.1907463191
 21
195.7260317926
 31
0.0
  0
LINE
  5
183
330
1F
100
AcDbEntity
  8
SLD-0
  6
Continuous
 62
   179
100
AcDbLine
 10
249.1907463191
 20
195.7260317926
 30
0.0
 11
249.0704673191
 21
195.3308267926
 31
0.0
  0
LINE
  5
184
330
1F
100
AcDbEntity
  8
SLD-0
  6
Continuous
 62
   179
100
AcDbLine
 10
249.0704673191
 20
195.3308267926
 30
0.0
 11
248.9838933191
 21
194.9262647926
 31
0.0
  0
LINE
  5
185
330
1F
100
AcDbEntity
  8
SLD-0
  6
Continuous
 62
   179
100
AcDbLine
 10
248.9838933191
 20
194.9262647926
 30
0.0
 11
248.9316843191
 21
194.5154257926
 31
0.0
  0
LINE
  5
186
330
1F
100
AcDbEntity
  8
SLD-0
  6
Continuous
 62
   179
100
AcDbLine
 10
248.9316843191
 20
194.5154257926
 30
0.0
 11
248.9142373191
 21
194.1014367926
 31
0.0
  0
LINE
  5
187
330
1F
100
AcDbEntity
  8
SLD-0
  6
Continuous
 62
   179
100
AcDbLine
 10
248.9142373191
 20
194.1014367926
 30
0.0
 11
248.9316843191
 21
193.6874467926
 31
0.0
  0
LINE
  5
188
330
1F
100
AcDbEntity
  8
SLD-0
  6
Continuous
 62
   179
100
AcDbLine
 10
248.9316843191
 20
193.6874467926
 30
0.0
 11
248.9838933191
 21
193.2766077926
 31
0.0
  0
LINE
  5
189
330
1F
100
AcDbEntity
  8
SLD-0
  6
Continuous
 62
   179
100
AcDbLine
 10
248.9838933191
 20
193.2766077926
 30
0.0
 11
249.0704673191
 21
192.8720457926
 31
0.0
  0
LINE
  5
18A
330
1F
100
AcDbEntity
  8
SLD-0
  6
Continuous
 62
   179
100
AcDbLine
 10
249.0704673191
 20
192.8720457926
 30
0.0
 11
249.1907463191
 21
192.4768407926
 31
0.0
  0
LINE
  5
18B
330
1F
100
AcDbEntity
  8
SLD-0
  6
Continuous
 62
   179
100
AcDbLine
 10
249.1907463191
 20
192.4768407926
 30
0.0
 11
249.3438153191
 21
192.0939997926
 31
0.0
  0
LINE
  5
18C
330
1F
100
AcDbEntity
  8
SLD-0
  6
Continuous
 62
   179
100
AcDbLine
 10
249.3438153191
 20
192.0939997926
 30
0.0
 11
249.5285103191
 21
191.7264367926
 31
0.0
  0
LINE
  5
18D
330
1F
100
AcDbEntity
  8
SLD-0
  6
Continuous
 62
   179
100
AcDbLine
 10
249.5285103191
 20
191.7264367926
 30
0.0
 11
249.7434253191
 21
191.3769477926
 31
0.0
  0
LINE
  5
18E
330
1F
100
AcDbEntity
  8
SLD-0
  6
Continuous
 62
   179
100
AcDbLine
 10
249.7434253191
 20
191.3769477926
 30
0.0
 11
249.9869233191
 21
191.0481947926
 31
0.0
  0
LINE
  5
18F
330
1F
100
AcDbEntity
  8
SLD-0
  6
Continuous
 62
   179
100
AcDbLine
 10
249.9869233191
 20
191.0481947926
 30
0.0
 11
250.2571523191
 21
190.7426787926
 31
0.0
  0
LINE
  5
190
330
1F
100
AcDbEntity
  8
SLD-0
  6
Continuous
 62
   179
100
AcDbLine
 10
250.2571523191
 20
190.7426787926
 30
0.0
 11
250.5520553191
 21
190.4627247926
 31
0.0
  0
LINE
  5
191
330
1F
100
AcDbEntity
  8
SLD-0
  6
Continuous
 62
   179
100
AcDbLine
 10
250.5520553191
 20
190.4627247926
 30
0.0
 11
250.8693893191
 21
190.2104637926
 31
0.0
  0
LINE
  5
192
330
1F
100
AcDbEntity
  8
SLD-0
  6
Continuous
 62
   179
100
AcDbLine
 10
250.8693893191
 20
190.2104637926
 30
0.0
 11
251.2067373191
 21
189.9878157926
 31
0.0
  0
LINE
  5
193
330
1F
100
AcDbEntity
  8
SLD-0
  6
Continuous
 62
   179
100
AcDbLine
 10
251.2067373191
 20
189.9878157926
 30
0.0
 11
251.5615323191
 21
189.7964747926
 31
0.0
  0
LINE
  5
194
330
1F
100
AcDbEntity
  8
SLD-0
  6
Continuous
 62
   179
100
AcDbLine
 10
251.5615323191
 20
189.7964747926
 30
0.0
 11
251.9310743191
 21
189.6378967926
 31
0.0
  0
LINE
  5
195
330
1F
100
AcDbEntity
  8
SLD-0
  6
Continuous
 62
   179
100
AcDbLine
 10
251.9310743191
 20
189.6378967926
 30
0.0
 11
252.3125513191
 21
189.5132887926
 31
0.0
  0
LINE
  5
196
330
1F
100
AcDbEntity
  8
SLD-0
  6
Continuous
 62
   179
100
AcDbLine
 10
252.3125513191
 20
189.5132887926
 30
0.0
 11
252.7030603191
 21
189.4235997926
 31
0.0
  0
LINE
  5
197
330
1F
100
AcDbEntity
  8
SLD-0
  6
Continuous
 62
   179
100
AcDbLine
 10
252.7030603191
 20
189.4235997926
 30
0.0
 11
253.0996283191
 21
189.3695117926
 31
0.0
  0
LINE
  5
198
330
1F
100
AcDbEntity
  8
SLD-0
  6
Continuous
 62
   179
100
AcDbLine
 10
253.0996283191
 20
189.3695117926
 30
0.0
 11
253.4992373191
 21
189.3514367926
 31
0.0
  0
LINE
  5
199
330
1F
100
AcDbEntity
  8
SLD-0
  6
Continuous
 62
   179
100
AcDbLine
 10
253.4992373191
 20
189.3514367926
 30
0.0
 11
253.8988463191
 21
189.3695117926
 31
0.0
  0
LINE
  5
19A
330
1F
100
AcDbEntity
  8
SLD-0
  6
Continuous
 62
   179
100
AcDbLine
 10
253.8988463191
 20
189.3695117926
 30
0.0
 11
254.2954143191
 21
189.4235997926
 31
0.0
  0
LINE
  5
19B
330
1F
100
AcDbEntity
  8
SLD-0
  6
Continuous
 62
   179
100
AcDbLine
 10
254.2954143191
 20
189.4235997926
 30
0.0
 11
254.6859223191
 21
189.5132887926
 31
0.0
  0
LINE
  5
19C
330
1F
100
AcDbEntity
  8
SLD-0
  6
Continuous
 62
   179
100
AcDbLine
 10
254.6859223191
 20
189.5132887926
 30
0.0
 11
255.0673993191
 21
189.6378967926
 31
0.0
  0
LINE
  5
19D
330
1F
100
AcDbEntity
  8
SLD-0
  6
Continuous
 62
   179
100
AcDbLine
 10
255.0673993191
 20
189.6378967926
 30
0.0
 11
255.4369413191
 21
189.7964747926
 31
0.0
  0
LINE
  5
19E
330
1F
100
AcDbEntity
  8
SLD-0
  6
Continuous
 62
   179
100
AcDbLine
 10
255.4369413191
 20
189.7964747926
 30
0.0
 11
255.7917373191
 21
189.9878157926
 31
0.0
  0
LINE
  5
19F
330
1F
100
AcDbEntity
  8
SLD-0
  6
Continuous
 62
   179
100
AcDbLine
 10
255.7917373191
 20
189.9878157926
 30
0.0
 11
256.1290853191
 21
190.2104637926
 31
0.0
  0
LINE
  5
1A0
330
1F
100
AcDbEntity
  8
SLD-0
  6
Continuous
 62
   179
100
AcDbLine
 10
256.1290853191
 20
190.2104637926
 30
0.0
 11
256.4464183191
 21
190.4627247926
 31
0.0
  0
LINE
  5
1A1
330
1F
100
AcDbEntity
  8
SLD-0
  6
Continuous
 62
   179
100
AcDbLine
 10
256.4464183191
 20
190.4627247926
 30
0.0
 11
256.7413213191
 21
190.7426787926
 31
0.0
  0
LINE
  5
1A2
330
1F
100
AcDbEntity
  8
SLD-0
  6
Continuous
 62
   179
100
AcDbLine
 10
256.7413213191
 20
190.7426787926
 30
0.0
 11
257.0115503191
 21
191.0481947926
 31
0.0
  0
LINE
  5
1A3
330
1F
100
AcDbEntity
  8
SLD-0
  6
Continuous
 62
   179
100
AcDbLine
 10
257.0115503191
 20
191.0481947926
 30
0.0
 11
257.2550493191
 21
191.3769477926
 31
0.0
  0
LINE
  5
1A4
330
1F
100
AcDbEntity
  8
SLD-0
  6
Continuous
 62
   179
100
AcDbLine
 10
257.2550493191
 20
191.3769477926
 30
0.0
 11
257.4699633191
 21
191.7264367926
 31
0.0
  0
LINE
  5
1A5
330
1F
100
AcDbEntity
  8
SLD-0
  6
Continuous
 62
   179
100
AcDbLine
 10
257.4699633191
 20
191.7264367926
 30
0.0
 11
257.6546583191
 21
192.0939997926
 31
0.0
  0
LINE
  5
1A6
330
1F
100
AcDbEntity
  8
SLD-0
  6
Continuous
 62
   179
100
AcDbLine
 10
257.6546583191
 20
192.0939997926
 30
0.0
 11
257.8077273191
 21
192.4768407926
 31
0.0
  0
LINE
  5
1A7
330
1F
100
AcDbEntity
  8
SLD-0
  6
Continuous
 62
   179
100
AcDbLine
 10
257.8077273191
 20
192.4768407926
 30
0.0
 11
257.9280073191
 21
192.8720457926
 31
0.0
  0
LINE
  5
1A8
330
1F
100
AcDbEntity
  8
SLD-0
  6
Continuous
 62
   179
100
AcDbLine
 10
257.9280073191
 20
192.8720457926
 30
0.0
 11
258.0145803191
 21
193.2766077926
 31
0.0
  0
LINE
  5
1A9
330
1F
100
AcDbEntity
  8
SLD-0
  6
Continuous
 62
   179
100
AcDbLine
 10
258.0145803191
 20
193.2766077926
 30
0.0
 11
258.0667893191
 21
193.6874467926
 31
0.0
  0
LINE
  5
1AA
330
1F
100
AcDbEntity
  8
SLD-0
  6
Continuous
 62
   179
100
AcDbLine
 10
258.0667893191
 20
193.6874467926
 30
0.0
 11
258.0842373191
 21
194.1014367926
 31
0.0
  0
LINE
  5
1AB
330
1F
100
AcDbEntity
  8
SLD-0
  6
Continuous
 62
   179
100
AcDbLine
 10
258.0842373191
 20
194.1014367926
 30
0.0
 11
258.0667893191
 21
194.5154257926
 31
0.0
  0
LINE
  5
1AC
330
1F
100
AcDbEntity
  8
SLD-0
  6
Continuous
 62
   179
100
AcDbLine
 10
258.0667893191
 20
194.5154257926
 30
0.0
 11
258.0145803191
 21
194.9262647926
 31
0.0
  0
LINE
  5
1AD
330
1F
100
AcDbEntity
  8
SLD-0
  6
Continuous
 62
   179
100
AcDbLine
 10
258.0145803191
 20
194.9262647926
 30
0.0
 11
257.9280073191
 21
195.3308267926
 31
0.0
  0
LINE
  5
1AE
330
1F
100
AcDbEntity
  8
SLD-0
  6
Continuous
 62
   179
100
AcDbLine
 10
257.9280073191
 20
195.3308267926
 30
0.0
 11
257.8077273191
 21
195.7260317926
 31
0.0
  0
LINE
  5
1AF
330
1F
100
AcDbEntity
  8
SLD-0
  6
Continuous
 62
   179
100
AcDbLine
 10
257.8077273191
 20
195.7260317926
 30
0.0
 11
257.6546583191
 21
196.1088727926
 31
0.0
  0
LINE
  5
1B0
330
1F
100
AcDbEntity
  8
SLD-0
  6
Continuous
 62
   179
100
AcDbLine
 10
257.6546583191
 20
196.1088727926
 30
0.0
 11
257.4699633191
 21
196.4764367926
 31
0.0
  0
LINE
  5
1B1
330
1F
100
AcDbEntity
  8
SLD-0
  6
Continuous
 62
   179
100
AcDbLine
 10
257.4699633191
 20
196.4764367926
 30
0.0
 11
257.2550493191
 21
196.8259247926
 31
0.0
  0
LINE
  5
1B2
330
1F
100
AcDbEntity
  8
SLD-0
  6
Continuous
 62
   179
100
AcDbLine
 10
257.2550493191
 20
196.8259247926
 30
0.0
 11
257.0115503191
 21
197.1546777926
 31
0.0
  0
LINE
  5
1B3
330
1F
100
AcDbEntity
  8
SLD-0
  6
Continuous
 62
   179
100
AcDbLine
 10
257.0115503191
 20
197.1546777926
 30
0.0
 11
256.7413213191
 21
197.4601937926
 31
0.0
  0
LINE
  5
1B4
330
1F
100
AcDbEntity
  8
SLD-0
  6
Continuous
 62
   179
100
AcDbLine
 10
256.7413213191
 20
197.4601937926
 30
0.0
 11
256.4464183191
 21
197.7401477926
 31
0.0
  0
LINE
  5
1B5
330
1F
100
AcDbEntity
  8
SLD-0
  6
Continuous
 62
   179
100
AcDbLine
 10
256.4464183191
 20
197.7401477926
 30
0.0
 11
256.1290853191
 21
197.9924087926
 31
0.0
  0
LINE
  5
1B6
330
1F
100
AcDbEntity
  8
SLD-0
  6
Continuous
 62
   179
100
AcDbLine
 10
256.1290853191
 20
197.9924087926
 30
0.0
 11
255.7917373191
 21
198.2150567926
 31
0.0
  0
LINE
  5
1B7
330
1F
100
AcDbEntity
  8
SLD-0
  6
Continuous
 62
   179
100
AcDbLine
 10
255.7917373191
 20
198.2150567926
 30
0.0
 11
255.4369413191
 21
198.4063987926
 31
0.0
  0
LINE
  5
1B8
330
1F
100
AcDbEntity
  8
SLD-0
  6
Continuous
 62
   179
100
AcDbLine
 10
255.4369413191
 20
198.4063987926
 30
0.0
 11
255.0673993191
 21
198.5649757926
 31
0.0
  0
LINE
  5
1B9
330
1F
100
AcDbEntity
  8
SLD-0
  6
Continuous
 62
   179
100
AcDbLine
 10
255.0673993191
 20
198.5649757926
 30
0.0
 11
254.6859223191
 21
198.6895837926
 31
0.0
  0
LINE
  5
1BA
330
1F
100
AcDbEntity
  8
SLD-0
  6
Continuous
 62
   179
100
AcDbLine
 10
254.6859223191
 20
198.6895837926
 30
0.0
 11
254.2954143191
 21
198.7792727926
 31
0.0
  0
LINE
  5
1BB
330
1F
100
AcDbEntity
  8
SLD-0
  6
Continuous
 62
   179
100
AcDbLine
 10
254.2954143191
 20
198.7792727926
 30
0.0
 11
253.8988463191
 21
198.8333607926
 31
0.0
  0
LINE
  5
1BC
330
1F
100
AcDbEntity
  8
SLD-0
  6
Continuous
 62
   179
100
AcDbLine
 10
253.8988463191
 20
198.8333607926
 30
0.0
 11
253.4992373191
 21
198.8514367926
 31
0.0
  0
ARC
  5
1BD
330
1F
100
AcDbEntity
  8
SLD-0
  6
Continuous
 62
   179
100
AcDbCircle
 10
231.4992373191
 20
108.3276527926
 30
0.0
 40
2.0
100
AcDbArc
 50
180.0
 51
270.0
  0
CIRCLE
  5
1BE
330
1F
100
AcDbEntity
  8
SLD-0
  6
Continuous
 62
   179
100
AcDbCircle
 10
219.4992373191
 20
114.6322937926
 30
0.0
 40
1.650000000000006
  0
ARC
  5
1BF
330
1F
100
AcDbEntity
  8
SLD-0
  6
Continuous
 62
   179
100
AcDbCircle
 10
145.2421633191
 20
123.6322939898
 30
0.0
 40
14.00000019716924
100
AcDbArc
 50
270.0
 51
341.2506597008
  0
ARC
  5
1C0
330
1F
100
AcDbEntity
  8
SLD-0
  6
Continuous
 62
   179
100
AcDbCircle
 10
231.4992373191
 20
84.9369337926
 30
0.0
 40
2.0
100
AcDbArc
 50
90.0
 51
180.0
  0
CIRCLE
  5
1C1
330
1F
100
AcDbEntity
  8
SLD-0
  6
Continuous
 62
   179
100
AcDbCircle
 10
219.4992373191
 20
78.6322937926
 30
0.0
 40
1.650000000000006
  0
ARC
  5
1C2
330
1F
100
AcDbEntity
  8
SLD-0
  6
Continuous
 62
   179
100
AcDbCircle
 10
145.2421633191
 20
69.6322935955
 30
0.0
 40
14.0000001971692
100
AcDbArc
 50
18.7493402992
 51
90.0
  0
CIRCLE
  5
1C3
330
1F
100
AcDbEntity
  8
SLD-0
  6
Continuous
 62
   179
100
AcDbCircle
 10
162.4992373191
 20
81.6322937926
 30
0.0
 40
2.650000000000006
  0
ARC
  5
1C4
330
1F
100
AcDbEntity
  8
SLD-0
  6
Continuous
 62
   179
100
AcDbCircle
 10
146.0992373191
 20
81.9322937926
 30
0.0
 40
0.5
100
AcDbArc
 50
270.0
 51
90.0
  0
ARC
  5
1C5
330
1F
100
AcDbEntity
  8
SLD-0
  6
Continuous
 62
   179
100
AcDbCircle
 10
142.0992373191
 20
81.9322937926
 30
0.0
 40
0.5
100
AcDbArc
 50
90.0
 51
270.0
  0
ARC
  5
1C6
330
1F
100
AcDbEntity
  8
SLD-0
  6
Continuous
 62
   179
100
AcDbCircle
 10
143.4992373191
 20
81.9322937926
 30
0.0
 40
0.5999999999999993
100
AcDbArc
 50
56.44269
 51
123.55731
  0
ARC
  5
1C7
330
1F
100
AcDbEntity
  8
SLD-0
  6
Continuous
 62
   179
100
AcDbCircle
 10
143.4992373191
 20
81.9322937926
 30
0.0
 40
0.5999999999999993
100
AcDbArc
 50
236.44269
 51
303.55731
  0
CIRCLE
  5
1C8
330
1F
100
AcDbEntity
  8
SLD-0
  6
Continuous
 62
   179
100
AcDbCircle
 10
143.4992373191
 20
111.3322937926
 30
0.0
 40
0.5999999999999943
  0
CIRCLE
  5
1C9
330
1F
100
AcDbEntity
  8
SLD-0
  6
Continuous
 62
   179
100
AcDbCircle
 10
143.4992373191
 20
111.3322937926
 30
0.0
 40
0.5
  0
CIRCLE
  5
1CA
330
1F
100
AcDbEntity
  8
SLD-0
  6
Continuous
 62
   179
100
AcDbCircle
 10
146.6952103191
 20
111.3322937926
 30
0.0
 40
0.5
  0
ARC
  5
1CB
330
1F
100
AcDbEntity
  8
SLD-0
  6
Continuous
 62
   179
100
AcDbCircle
 10
144.9992373191
 20
111.3322937926
 30
0.0
 40
0.5000000000000426
100
AcDbArc
 50
90.0
 51
270.0
  0
CIRCLE
  5
1CC
330
1F
100
AcDbEntity
  8
SLD-0
  6
Continuous
 62
   179
100
AcDbCircle
 10
162.4992373191
 20
111.6322937926
 30
0.0
 40
2.650000000000006
  0
CIRCLE
  5
1CD
330
1F
100
AcDbEntity
  8
SLD-0
  6
Continuous
 62
   179
100
AcDbCircle
 10
179.4992373191
 20
114.6322937926
 30
0.0
 40
1.650000000000034
  0
CIRCLE
  5
1CE
330
1F
100
AcDbEntity
  8
SLD-0
  6
Continuous
 62
   179
100
AcDbCircle
 10
179.4992373191
 20
78.6322937926
 30
0.0
 40
1.650000000000034
  0
CIRCLE
  5
1CF
330
1F
100
AcDbEntity
  8
SLD-0
  6
Continuous
 62
   179
100
AcDbCircle
 10
184.4992373191
 20
206.2780077926
 30
0.0
 40
1.650000000000006
  0
ARC
  5
1D0
330
1F
100
AcDbEntity
  8
SLD-0
  6
Continuous
 62
   179
100
AcDbCircle
 10
147.3678937247
 20
185.3221132018
 30
0.0
 40
2.868656154598271
100
AcDbArc
 50
142.617917
 51
220.0000069875
  0
ARC
  5
1D1
330
1F
100
AcDbEntity
  8
SLD-0
  6
Continuous
 62
   179
100
AcDbCircle
 10
143.4992372027
 20
188.2780076007
 30
0.0
 40
2.999999999999976
100
AcDbArc
 50
322.617917
 51
38.156077
  0
ARC
  5
1D2
330
1F
100
AcDbEntity
  8
SLD-0
  6
Continuous
 62
   179
100
AcDbCircle
 10
147.4308903806
 20
191.3670367404
 30
0.0
 40
1.999999773762549
100
AcDbArc
 50
139.693036
 51
218.1560917293
  0
ARC
  5
1D3
330
1F
100
AcDbEntity
  8
SLD-0
  6
Continuous
 62
   179
100
AcDbCircle
 10
143.9992373191
 20
194.2780077926
 30
0.0
 40
2.499999693069439
100
AcDbArc
 50
319.6930279343
 51
235.150095
  0
ARC
  5
1D4
330
1F
100
AcDbEntity
  8
SLD-0
  6
Continuous
 62
   179
100
AcDbCircle
 10
141.9992374187
 20
191.4057269357
 30
0.0
 40
0.9999998673543822
100
AcDbArc
 50
0.0
 51
55.1500858894
  0
ARC
  5
1D5
330
1F
100
AcDbEntity
  8
SLD-0
  6
Continuous
 62
   179
100
AcDbCircle
 10
142.9992373471
 20
191.9867198567
 30
0.0
 40
1.00000000000001
100
AcDbArc
 50
0.0
 51
66.421822
  0
ARC
  5
1D6
330
1F
100
AcDbEntity
  8
SLD-0
  6
Continuous
 62
   179
100
AcDbCircle
 10
143.9992373191
 20
194.2780077926
 30
0.0
 40
1.500000069894447
100
AcDbArc
 50
319.693036
 51
246.4218235334
  0
ARC
  5
1D7
330
1F
100
AcDbEntity
  8
SLD-0
  6
Continuous
 62
   179
100
AcDbCircle
 10
147.4308903806
 20
191.3670367404
 30
0.0
 40
2.99999939693755
100
AcDbArc
 50
139.6930292786
 51
218.156077
  0
CIRCLE
  5
1D8
330
1F
100
AcDbEntity
  8
SLD-0
  6
Continuous
 62
   179
100
AcDbCircle
 10
143.4992372027
 20
188.2780076007
 30
0.0
 40
1.500000000000006
  0
CIRCLE
  5
1D9
330
1F
100
AcDbEntity
  8
SLD-0
  6
Continuous
 62
   179
100
AcDbCircle
 10
143.4992372027
 20
188.2780076007
 30
0.0
 40
1.999999999999995
  0
ARC
  5
1DA
330
1F
100
AcDbEntity
  8
SLD-0
  6
Continuous
 62
   179
100
AcDbCircle
 10
147.3678937247
 20
185.3221132018
 30
0.0
 40
1.868656383645015
100
AcDbArc
 50
142.6179260701
 51
220.0000163139
  0
ARC
  5
1DB
330
1F
100
AcDbEntity
  8
SLD-0
  6
Continuous
 62
   179
100
AcDbCircle
 10
143.4992372027
 20
188.2780076007
 30
0.0
 40
5.500000000000001
100
AcDbArc
 50
275.215909
 51
290.840375
  0
ARC
  5
1DC
330
1F
100
AcDbEntity
  8
SLD-0
  6
Continuous
 62
   179
100
AcDbCircle
 10
143.4992372027
 20
188.2780076007
 30
0.0
 40
5.200000000000009
100
AcDbArc
 50
275.517734
 51
289.687774
  0
ARC
  5
1DD
330
1F
100
AcDbEntity
  8
SLD-0
  6
Continuous
 62
   179
100
AcDbCircle
 10
143.4992372027
 20
188.2780076007
 30
0.0
 40
5.20000000000001
100
AcDbArc
 50
301.093175
 51
60.872635
  0
ARC
  5
1DE
330
1F
100
AcDbEntity
  8
SLD-0
  6
Continuous
 62
   179
100
AcDbCircle
 10
143.4992372027
 20
188.2780076007
 30
0.0
 40
5.500000000000028
100
AcDbArc
 50
301.582631
 51
60.703801
  0
ARC
  5
1DF
330
1F
100
AcDbEntity
  8
SLD-0
  6
Continuous
 62
   179
100
AcDbCircle
 10
143.4992372027
 20
188.2780076007
 30
0.0
 40
5.200000000000006
100
AcDbArc
 50
109.600082
 51
264.482266
  0
ARC
  5
1E0
330
1F
100
AcDbEntity
  8
SLD-0
  6
Continuous
 62
   179
100
AcDbCircle
 10
143.4992372027
 20
188.2780076007
 30
0.0
 40
5.499999999999998
100
AcDbArc
 50
109.768915
 51
264.784091
  0
ARC
  5
1E1
330
1F
100
AcDbEntity
  8
SLD-0
  6
Continuous
 62
   179
100
AcDbCircle
 10
143.4992372027
 20
188.2780076007
 30
0.0
 40
5.200000000000003
100
AcDbArc
 50
72.29367
 51
98.119672
  0
ARC
  5
1E2
330
1F
100
AcDbEntity
  8
SLD-0
  6
Continuous
 62
   179
100
AcDbCircle
 10
143.4992372027
 20
188.2780076007
 30
0.0
 40
5.500000000000012
100
AcDbArc
 50
71.195319
 51
99.277397
  0
CIRCLE
  5
1E3
330
1F
100
AcDbEntity
  8
SLD-0
  6
Continuous
 62
   179
100
AcDbCircle
 10
184.4992373191
 20
170.2780077926
 30
0.0
 40
1.650000000000006
  0
CIRCLE
  5
1E4
330
1F
100
AcDbEntity
  8
SLD-0
  6
Continuous
 62
   179
100
AcDbCircle
 10
224.4992373191
 20
206.2780077926
 30
0.0
 40
1.650000000000006
  0
ARC
  5
1E5
330
1F
100
AcDbEntity
  8
SLD-0
  6
Continuous
 62
   179
100
AcDbCircle
 10
231.4992373191
 20
199.9733677926
 30
0.0
 40
2.000000000000028
100
AcDbArc
 50
180.0
 51
270.0
  0
ARC
  5
1E6
330
1F
100
AcDbEntity
  8
SLD-0
  6
Continuous
 62
   179
100
AcDbCircle
 10
231.4992373191
 20
176.5826477926
 30
0.0
 40
2.0
100
AcDbArc
 50
90.0
 51
180.0
  0
CIRCLE
  5
1E7
330
1F
100
AcDbEntity
  8
SLD-0
  6
Continuous
 62
   179
100
AcDbCircle
 10
224.4992373191
 20
170.2780077926
 30
0.0
 40
1.650000000000006
  0
ARC
  5
1E8
330
1F
100
AcDbEntity
  8
SLD-0
  6
Continuous
 62
   179
100
AcDbCircle
 10
250.4992373191
 20
168.2780077926
 30
0.0
 40
2.0
100
AcDbArc
 50
90.0
 51
180.0
  0
ARC
  5
1E9
330
1F
100
AcDbEntity
  8
SLD-0
  6
Continuous
 62
   179
100
AcDbCircle
 10
250.4992373191
 20
208.2780077926
 30
0.0
 40
2.0
100
AcDbArc
 50
180.0
 51
270.0
  0
ARC
  5
1EA
330
1F
100
AcDbEntity
  8
SLD-0
  6
Continuous
 62
   179
100
AcDbCircle
 10
340.1781983191
 20
188.2780077926
 30
0.0
 40
21.00000000000001
100
AcDbArc
 50
301.002719
 51
58.997281
  0
ARC
  5
1EB
330
1F
100
AcDbEntity
  8
SLD-0
  6
Continuous
 62
   179
100
AcDbCircle
 10
340.1781983191
 20
188.2780077926
 30
0.0
 40
21.00000000000007
100
AcDbArc
 50
121.002719
 51
238.997281
  0
CIRCLE
  5
1EC
330
1F
100
AcDbEntity
  8
SLD-0
  6
Continuous
 62
   179
100
AcDbCircle
 10
329.5715963191
 20
177.6714057926
 30
0.0
 40
2.100000000000023
  0
CIRCLE
  5
1ED
330
1F
100
AcDbEntity
  8
SLD-0
  6
Continuous
 62
   179
100
AcDbCircle
 10
340.1781983191
 20
188.2780077926
 30
0.0
 40
4.249999999999943
  0
CIRCLE
  5
1EE
330
1F
100
AcDbEntity
  8
SLD-0
  6
Continuous
 62
   179
100
AcDbCircle
 10
340.1781983191
 20
188.2780077926
 30
0.0
 40
3.0
  0
CIRCLE
  5
1EF
330
1F
100
AcDbEntity
  8
SLD-0
  6
Continuous
 62
   179
100
AcDbCircle
 10
340.1781983191
 20
188.2780077926
 30
0.0
 40
22.5
  0
CIRCLE
  5
1F0
330
1F
100
AcDbEntity
  8
SLD-0
  6
Continuous
 62
   179
100
AcDbCircle
 10
350.7848003191
 20
198.8846097926
 30
0.0
 40
2.099999999999966
  0
ARC
  5
1F1
330
1F
100
AcDbEntity
  8
SLD-0
  6
Continuous
 62
   179
100
AcDbCircle
 10
104.5828492557
 20
197.5209339793
 30
0.0
 40
14.00000019716925
100
AcDbArc
 50
108.7493402992
 51
180.0
  0
ARC
  5
1F2
330
1F
100
AcDbEntity
  8
SLD-0
  6
Continuous
 62
   179
100
AcDbCircle
 10
104.5828492557
 20
179.0350816059
 30
0.0
 40
14.00000019716919
100
AcDbArc
 50
180.0
 51
251.2506597008
  0
ARC
  5
1F3
330
1F
100
AcDbEntity
  8
SLD-0
  6
Continuous
 62
   179
100
AcDbCircle
 10
92.2828493191
 20
196.2780077926
 30
0.0
 40
0.5
100
AcDbArc
 50
0.0
 51
180.0
  0
ARC
  5
1F4
330
1F
100
AcDbEntity
  8
SLD-0
  6
Continuous
 62
   179
100
AcDbCircle
 10
77.5828493191
 20
188.2780077926
 30
0.0
 40
19.20000000000001
100
AcDbArc
 50
71.790043
 51
108.209957
  0
ARC
  5
1F5
330
1F
100
AcDbEntity
  8
SLD-0
  6
Continuous
 62
   179
100
AcDbCircle
 10
77.5828493191
 20
188.2780077926
 30
0.0
 40
19.19999999999999
100
AcDbArc
 50
251.790043
 51
288.209957
  0
ARC
  5
1F6
330
1F
100
AcDbEntity
  8
SLD-0
  6
Continuous
 62
   179
100
AcDbCircle
 10
50.5828493825
 20
179.0350816059
 30
0.0
 40
14.00000019716916
100
AcDbArc
 50
288.7493402992
 51
0.0
  0
ARC
  5
1F7
330
1F
100
AcDbEntity
  8
SLD-0
  6
Continuous
 62
   179
100
AcDbCircle
 10
62.8828493191
 20
180.2780077926
 30
0.0
 40
0.5000000000000071
100
AcDbArc
 50
180.0
 51
0.0
  0
ARC
  5
1F8
330
1F
100
AcDbEntity
  8
SLD-0
  6
Continuous
 62
   179
100
AcDbCircle
 10
50.5828493825
 20
197.5209339793
 30
0.0
 40
14.00000019716923
100
AcDbArc
 50
360.0
 51
71.2506597008
  0
CIRCLE
  5
1F9
330
1F
100
AcDbEntity
  8
SLD-0
  6
Continuous
 62
   179
100
AcDbCircle
 10
219.4992373191
 20
78.6322937926
 30
0.0
 40
2.0
  0
CIRCLE
  5
1FA
330
1F
100
AcDbEntity
  8
SLD-0
  6
Continuous
 62
   179
100
AcDbCircle
 10
179.4992373191
 20
78.6322937926
 30
0.0
 40
2.000000000000028
  0
CIRCLE
  5
1FB
330
1F
100
AcDbEntity
  8
SLD-0
  6
Continuous
 62
   179
100
AcDbCircle
 10
219.4992373191
 20
114.6322937926
 30
0.0
 40
2.0
  0
CIRCLE
  5
1FC
330
1F
100
AcDbEntity
  8
SLD-0
  6
Continuous
 62
   179
100
AcDbCircle
 10
179.4992373191
 20
114.6322937926
 30
0.0
 40
2.000000000000028
  0
CIRCLE
  5
1FD
330
1F
100
AcDbEntity
  8
SLD-0
  6
Continuous
 62
   179
100
AcDbCircle
 10
184.4992373191
 20
170.2780077926
 30
0.0
 40
2.0
  0
CIRCLE
  5
1FE
330
1F
100
AcDbEntity
  8
SLD-0
  6
Continuous
 62
   179
100
AcDbCircle
 10
224.4992373191
 20
170.2780077926
 30
0.0
 40
2.0
  0
CIRCLE
  5
1FF
330
1F
100
AcDbEntity
  8
SLD-0
  6
Continuous
 62
   179
100
AcDbCircle
 10
224.4992373191
 20
206.2780077926
 30
0.0
 40
2.0
  0
CIRCLE
  5
200
330
1F
100
AcDbEntity
  8
SLD-0
  6
Continuous
 62
   179
100
AcDbCircle
 10
340.1781983191
 20
188.2780077926
 30
0.0
 40
4.749999999999943
  0
CIRCLE
  5
201
330
1F
100
AcDbEntity
  8
SLD-0
  6
Continuous
 62
   179
100
AcDbCircle
 10
350.7848003191
 20
198.8846097926
 30
0.0
 40
2.5
  0
CIRCLE
  5
202
330
1F
100
AcDbEntity
  8
SLD-0
  6
Continuous
 62
   179
100
AcDbCircle
 10
329.5715963191
 20
177.6714057926
 30
0.0
 40
2.5
  0
CIRCLE
  5
203
330
1F
100
AcDbEntity
  8
SLD-0
  6
Continuous
 62
   179
100
AcDbCircle
 10
184.4992373191
 20
206.2780077926
 30
0.0
 40
2.0
  0
MTEXT
  5
205
330
1F
100
AcDbEntity
  8
SLD-0
 62
     7
100
AcDbMText
 10
343.5472911751
 20
44.5691269618
 30
0.0
 40
4.8000001907
 41
0.0
 71
     1
 72
     1
  1
エアニッパー（角型）
  7
SLDTEXTSTYLE4
 73
     1
 44
1.0
  0
MTEXT
  5
207
330
1F
100
AcDbEntity
  8
SLD-0
 62
     7
100
AcDbMText
 10
351.3480500918
 20
31.3524252867
 30
0.0
 40
4.8000001907
 41
0.0
 71
     1
 72
     1
  1
ＧＴ－ＮＳ２０
  7
SLDTEXTSTYLE5
 73
     1
 44
1.0
  0
MTEXT
  5
209
330
1F
100
AcDbEntity
  8
SLD-0
 62
     7
100
AcDbMText
 10
354.7493152868
 20
19.0368623622
 30
0.0
 40
4.8000001907
 41
0.0
 71
     1
 72
     1
  1
０６０２４１
  7
SLDTEXTSTYLE6
 73
     1
 44
1.0
  0
INSERT
  5
20A
330
1F
100
AcDbEntity
  8
0
  6
Continuous
 62
     7
370
     0
100
AcDbBlockReference
  2
KOZU0001
 10
185.1883464244
 20
168.4004751988
 30
0.0
  0
INSERT
  5
20B
330
1F
100
AcDbEntity
  8
0
  6
Continuous
 62
     7
370
     0
100
AcDbBlockReference
  2
KOZU0002
 10
256.2406422705
 20
198.3637645444
 30
0.0
  0
INSERT
  5
20C
330
1F
100
AcDbEntity
  8
0
  6
Continuous
 62
     7
370
     0
100
AcDbBlockReference
  2
KOZU0003
 10
330.443612494
 20
175.3284188548
 30
0.0
  0
INSERT
  5
20D
330
1F
100
AcDbEntity
  8
0
  6
Continuous
 62
     7
370
     0
100
AcDbBlockReference
  2
KOZU0004
 10
342.0351528747
 20
192.6499890115
 30
0.0
  0
INSERT
  5
20E
330
1F
100
AcDbEntity
  8
0
  6
Continuous
 62
     7
370
     0
100
AcDbBlockReference
  2
KOZU0005
 10
163.8918105502
 20
79.3776896598
 30
0.0
  0
ENDSEC
  0
SECTION
  2
OBJECTS
  0
DICTIONARY
  5
C
330
0
100
AcDbDictionary
281
     1
  3
ACAD_GROUP
350
D
  3
ACAD_LAYOUT
350
1A
  3
ACAD_MLINESTYLE
350
17
  3
ACAD_PLOTSETTINGS
350
19
  3
ACAD_PLOTSTYLENAME
350
E
  0
DICTIONARY
  5
D
102
{ACAD_REACTORS
330
C
102
}
330
C
100
AcDbDictionary
281
     1
  0
DICTIONARY
  5
1A
102
{ACAD_REACTORS
330
C
102
}
330
C
100
AcDbDictionary
281
     1
  3
Layout1
350
1E
  3
Layout2
350
26
  3
Model
350
22
  0
DICTIONARY
  5
17
102
{ACAD_REACTORS
330
C
102
}
330
C
100
AcDbDictionary
281
     1
  3
Standard
350
18
  0
DICTIONARY
  5
19
102
{ACAD_REACTORS
330
C
102
}
330
C
100
AcDbDictionary
281
     1
  0
ACDBDICTIONARYWDFLT
  5
E
102
{ACAD_REACTORS
330
C
102
}
330
C
100
AcDbDictionary
281
     1
  3
Normal
350
F
100
AcDbDictionaryWithDefault
340
F
  0
LAYOUT
  5
1E
102
{ACAD_REACTORS
330
1A
102
}
330
1A
100
AcDbPlotSettings
  1

  2

  4

  6

 40
0.0
 41
0.0
 42
0.0
 43
0.0
 44
0.0
 45
0.0
 46
0.0
 47
0.0
 48
0.0
 49
0.0
140
0.0
141
0.0
142
1.0
143
1.0
 70
   688
 72
     0
 73
     0
 74
     5
  7

 75
    16
147
1.0
148
0.0
149
0.0
100
AcDbLayout
  1
Layout1
 70
     1
 71
     1
 10
0.0
 20
0.0
 11
0.0
 21
0.0
 12
0.0
 22
0.0
 32
0.0
 14
0.0
 24
0.0
 34
0.0
 15
0.0
 25
0.0
 35
0.0
146
0.0
 13
0.0
 23
0.0
 33
0.0
 16
1.0
 26
0.0
 36
0.0
 17
0.0
 27
1.0
 37
0.0
 76
     0
330
1B
  0
LAYOUT
  5
26
102
{ACAD_REACTORS
330
1A
102
}
330
1A
100
AcDbPlotSettings
  1

  2

  4

  6

 40
0.0
 41
0.0
 42
0.0
 43
0.0
 44
0.0
 45
0.0
 46
0.0
 47
0.0
 48
0.0
 49
0.0
140
0.0
141
0.0
142
1.0
143
1.0
 70
   688
 72
     0
 73
     0
 74
     5
  7

 75
    16
147
1.0
148
0.0
149
0.0
100
AcDbLayout
  1
Layout2
 70
     1
 71
     2
 10
0.0
 20
0.0
 11
0.0
 21
0.0
 12
0.0
 22
0.0
 32
0.0
 14
0.0
 24
0.0
 34
0.0
 15
0.0
 25
0.0
 35
0.0
146
0.0
 13
0.0
 23
0.0
 33
0.0
 16
1.0
 26
0.0
 36
0.0
 17
0.0
 27
1.0
 37
0.0
 76
     0
330
23
  0
LAYOUT
  5
22
102
{ACAD_REACTORS
330
1A
102
}
330
1A
100
AcDbPlotSettings
  1

  2

  4

  6

 40
0.0
 41
0.0
 42
0.0
 43
0.0
 44
0.0
 45
0.0
 46
0.0
 47
0.0
 48
0.0
 49
0.0
140
0.0
141
0.0
142
1.0
143
1.0
 70
  1712
 72
     0
 73
     0
 74
     0
  7

 75
     0
147
1.0
148
0.0
149
0.0
100
AcDbLayout
  1
Model
 70
     1
 71
     0
 10
0.0
 20
0.0
 11
0.0
 21
0.0
 12
0.0
 22
0.0
 32
0.0
 14
0.0
 24
0.0
 34
0.0
 15
420.0
 25
297.0
 35
0.0
146
0.0
 13
0.0
 23
0.0
 33
0.0
 16
1.0
 26
0.0
 36
0.0
 17
0.0
 27
1.0
 37
0.0
 76
     0
330
1F
  0
MLINESTYLE
  5
18
102
{ACAD_REACTORS
330
17
102
}
330
17
100
AcDbMlineStyle
  2
Standard
 70
     0
  3

 62
   256
 51
90.0
 52
90.0
 71
     2
 49
0.5
 62
   256
  6
BYLAYER
 49
-0.5
 62
   256
  6
BYLAYER
  0
ACDBPLACEHOLDER
  5
F
102
{ACAD_REACTORS
330
E
102
}
330
E
  0
ENDSEC
  0
EOF
