  0
SECTION
  2
HEADER
  9
$ACADVER
  1
AC1015
  9
$ACADMAINTVER
 70
     6
  9
$DWGCODEPAGE
  3
DOS932
  9
$INSBASE
 10
0.0
 20
0.0
 30
0.0
  9
$EXTMIN
 10
0.0
 20
0.0
 30
0.0
  9
$EXTMAX
 10
420.0
 20
297.0
 30
0.0
  9
$LIMMIN
 10
0.0
 20
0.0
  9
$LIMMAX
 10
0.0
 20
0.0
  9
$ORTHOMODE
 70
     0
  9
$REGENMODE
 70
     1
  9
$FILLMODE
 70
     1
  9
$QTEXTMODE
 70
     0
  9
$MIRRTEXT
 70
     1
  9
$LTSCALE
 40
1.0
  9
$ATTMODE
 70
     1
  9
$TEXTSIZE
 40
3.5
  9
$TRACEWID
 40
1.0
  9
$TEXTSTYLE
  7
Standard
  9
$CLAYER
  8
0
  9
$CELTYPE
  6
ByLayer
  9
$CECOLOR
 62
   256
  9
$CELTSCALE
 40
1.0
  9
$DISPSILH
 70
     0
  9
$DIMSCALE
 40
1.0
  9
$DIMASZ
 40
3.0
  9
$DIMEXO
 40
1.0
  9
$DIMDLI
 40
3.75
  9
$DIMRND
 40
0.0
  9
$DIMDLE
 40
0.0
  9
$DIMEXE
 40
1.0
  9
$DIMTP
 40
0.0
  9
$DIMTM
 40
0.0
  9
$DIMTXT
 40
3.2000000477
  9
$DIMCEN
 40
2.5
  9
$DIMTSZ
 40
0.0
  9
$DIMTOL
 70
     0
  9
$DIMLIM
 70
     0
  9
$DIMTIH
 70
     1
  9
$DIMTOH
 70
     1
  9
$DIMSE1
 70
     0
  9
$DIMSE2
 70
     0
  9
$DIMTAD
 70
     1
  9
$DIMZIN
 70
     1
  9
$DIMBLK
  1

  9
$DIMASO
 70
     1
  9
$DIMSHO
 70
     1
  9
$DIMPOST
  1

  9
$DIMAPOST
  1

  9
$DIMALT
 70
     0
  9
$DIMALTD
 70
     3
  9
$DIMALTF
 40
0.0393700787
  9
$DIMLFAC
 40
1.0
  9
$DIMTOFL
 70
     1
  9
$DIMTVP
 40
0.0
  9
$DIMTIX
 70
     0
  9
$DIMSOXD
 70
     0
  9
$DIMSAH
 70
     0
  9
$DIMBLK1
  1

  9
$DIMBLK2
  1

  9
$DIMSTYLE
  2
ISO-25
  9
$DIMCLRD
 70
     0
  9
$DIMCLRE
 70
     0
  9
$DIMCLRT
 70
     0
  9
$DIMTFAC
 40
1.0
  9
$DIMGAP
 40
1.524
  9
$DIMJUST
 70
     0
  9
$DIMSD1
 70
     0
  9
$DIMSD2
 70
     0
  9
$DIMTOLJ
 70
     0
  9
$DIMTZIN
 70
     1
  9
$DIMALTZ
 70
     0
  9
$DIMALTTZ
 70
     0
  9
$DIMUPT
 70
     0
  9
$DIMDEC
 70
     2
  9
$DIMTDEC
 70
     2
  9
$DIMALTU
 70
     2
  9
$DIMALTTD
 70
     3
  9
$DIMTXSTY
  7
Standard
  9
$DIMAUNIT
 70
     0
  9
$DIMADEC
 70
     0
  9
$DIMALTRND
 40
0.0
  9
$DIMAZIN
 70
     0
  9
$DIMDSEP
 70
    44
  9
$DIMATFIT
 70
     3
  9
$DIMFRAC
 70
     0
  9
$DIMLDRBLK
  1

  9
$DIMLUNIT
 70
     2
  9
$DIMLWD
 70
    -2
  9
$DIMLWE
 70
    -2
  9
$DIMTMOVE
 70
     0
  9
$LUNITS
 70
     2
  9
$LUPREC
 70
     4
  9
$SKETCHINC
 40
1.0
  9
$FILLETRAD
 40
10.0
  9
$AUNITS
 70
     0
  9
$AUPREC
 70
     0
  9
$MENU
  1
.
  9
$ELEVATION
 40
0.0
  9
$PELEVATION
 40
0.0
  9
$THICKNESS
 40
0.0
  9
$LIMCHECK
 70
     0
  9
$CHAMFERA
 40
10.0
  9
$CHAMFERB
 40
10.0
  9
$CHAMFERC
 40
20.0
  9
$CHAMFERD
 40
0.0
  9
$SKPOLY
 70
     0
  9
$TDCREATE
 40
2454307.495932974
  9
$TDUCREATE
 40
2454307.120932974
  9
$TDUPDATE
 40
2454307.495932986
  9
$TDUUPDATE
 40
2454307.120932986
  9
$TDINDWG
 40
0.0000000116
  9
$TDUSRTIMER
 40
0.0000000116
  9
$USRTIMER
 70
     1
  9
$ANGBASE
 50
0.0
  9
$ANGDIR
 70
     0
  9
$PDMODE
 70
     0
  9
$PDSIZE
 40
-1.0
  9
$PLINEWID
 40
0.0
  9
$SPLFRAME
 70
     0
  9
$SPLINETYPE
 70
     6
  9
$SPLINESEGS
 70
     8
  9
$HANDSEED
  5
211
  9
$SURFTAB1
 70
     6
  9
$SURFTAB2
 70
     6
  9
$SURFTYPE
 70
     6
  9
$SURFU
 70
     6
  9
$SURFV
 70
     6
  9
$UCSBASE
  2

  9
$UCSNAME
  2

  9
$UCSORG
 10
0.0
 20
0.0
 30
0.0
  9
$UCSXDIR
 10
1.0
 20
0.0
 30
0.0
  9
$UCSYDIR
 10
0.0
 20
1.0
 30
0.0
  9
$UCSORTHOREF
  2

  9
$UCSORTHOVIEW
 70
     0
  9
$UCSORGTOP
 10
0.0
 20
0.0
 30
0.0
  9
$UCSORGBOTTOM
 10
0.0
 20
0.0
 30
0.0
  9
$UCSORGLEFT
 10
0.0
 20
0.0
 30
0.0
  9
$UCSORGRIGHT
 10
0.0
 20
0.0
 30
0.0
  9
$UCSORGFRONT
 10
0.0
 20
0.0
 30
0.0
  9
$UCSORGBACK
 10
0.0
 20
0.0
 30
0.0
  9
$PUCSBASE
  2

  9
$PUCSNAME
  2

  9
$PUCSORG
 10
0.0
 20
0.0
 30
0.0
  9
$PUCSXDIR
 10
1.0
 20
0.0
 30
0.0
  9
$PUCSYDIR
 10
0.0
 20
1.0
 30
0.0
  9
$PUCSORTHOREF
  2

  9
$PUCSORTHOVIEW
 70
     0
  9
$PUCSORGTOP
 10
0.0
 20
0.0
 30
0.0
  9
$PUCSORGBOTTOM
 10
0.0
 20
0.0
 30
0.0
  9
$PUCSORGLEFT
 10
0.0
 20
0.0
 30
0.0
  9
$PUCSORGRIGHT
 10
0.0
 20
0.0
 30
0.0
  9
$PUCSORGFRONT
 10
0.0
 20
0.0
 30
0.0
  9
$PUCSORGBACK
 10
0.0
 20
0.0
 30
0.0
  9
$USERI1
 70
     0
  9
$USERI2
 70
     0
  9
$USERI3
 70
     0
  9
$USERI4
 70
     0
  9
$USERI5
 70
     0
  9
$USERR1
 40
0.0
  9
$USERR2
 40
0.0
  9
$USERR3
 40
0.0
  9
$USERR4
 40
0.0
  9
$USERR5
 40
0.0
  9
$WORLDVIEW
 70
     1
  9
$SHADEDGE
 70
     3
  9
$SHADEDIF
 70
    70
  9
$TILEMODE
 70
     1
  9
$MAXACTVP
 70
    64
  9
$PINSBASE
 10
0.0
 20
0.0
 30
0.0
  9
$PLIMCHECK
 70
     0
  9
$PEXTMIN
 10
1.0000000000E+20
 20
1.0000000000E+20
 30
1.0000000000E+20
  9
$PEXTMAX
 10
-1.0000000000E+20
 20
-1.0000000000E+20
 30
-1.0000000000E+20
  9
$PLIMMIN
 10
0.0
 20
0.0
  9
$PLIMMAX
 10
420.0
 20
297.0
  9
$UNITMODE
 70
     0
  9
$VISRETAIN
 70
     1
  9
$PLINEGEN
 70
     0
  9
$PSLTSCALE
 70
     1
  9
$TREEDEPTH
 70
  3020
  9
$CMLSTYLE
  2
Standard
  9
$CMLJUST
 70
     0
  9
$CMLSCALE
 40
20.0
  9
$PROXYGRAPHICS
 70
     1
  9
$MEASUREMENT
 70
     1
  9
$CELWEIGHT
370
    -1
  9
$ENDCAPS
280
     0
  9
$JOINSTYLE
280
     0
  9
$LWDISPLAY
290
     1
  9
$INSUNITS
 70
     4
  9
$HYPERLINKBASE
  1

  9
$STYLESHEET
  1

  9
$XEDIT
290
     1
  9
$CEPSNTYPE
380
     0
  9
$PSTYLEMODE
290
     1
  9
$FINGERPRINTGUID
  2
{70519121-F2C3-42AF-838F-2F8D431934BE}
  9
$VERSIONGUID
  2
{FAEB1C32-E019-11D5-929B-00C0DF256EC4}
  9
$EXTNAMES
290
     1
  9
$PSVPSCALE
 40
0.0
  9
$OLESTARTUP
290
     0
  0
ENDSEC
  0
SECTION
  2
CLASSES
  0
CLASS
  1
ACDBDICTIONARYWDFLT
  2
AcDbDictionaryWithDefault
  3
ObjectDBX Classes
 90
        0
280
     0
281
     0
  0
CLASS
  1
ACDBPLACEHOLDER
  2
AcDbPlaceHolder
  3
ObjectDBX Classes
 90
        0
280
     0
281
     0
  0
CLASS
  1
LAYOUT
  2
AcDbLayout
  3
ObjectDBX Classes
 90
        0
280
     0
281
     0
  0
ENDSEC
  0
SECTION
  2
TABLES
  0
TABLE
  2
VPORT
  5
8
330
0
100
AcDbSymbolTable
 70
     1
  0
VPORT
  5
29
330
8
100
AcDbSymbolTableRecord
100
AcDbViewportTableRecord
  2
*Active
 70
     0
 10
0.0
 20
0.0
 11
1.0
 21
1.0
 12
210.0
 22
148.5
 13
0.0
 23
0.0
 14
10.0
 24
10.0
 15
10.0
 25
10.0
 16
0.0
 26
0.0
 36
1.0
 17
0.0
 27
0.0
 37
0.0
 40
297.0
 41
1.9729729729
 42
50.0
 43
0.0
 44
0.0
 50
0.0
 51
0.0
 71
     0
 72
  2000
 73
     1
 74
     3
 75
     0
 76
     0
 77
     0
 78
     0
281
     0
 65
     1
110
0.0
120
0.0
130
0.0
111
1.0
121
0.0
131
0.0
112
0.0
122
1.0
132
0.0
 79
     0
146
0.0
  0
ENDTAB
  0
TABLE
  2
LTYPE
  5
5
330
0
100
AcDbSymbolTable
 70
     6
  0
LTYPE
  5
14
330
5
100
AcDbSymbolTableRecord
100
AcDbLinetypeTableRecord
  2
ByBlock
 70
     0
  3

 72
    65
 73
     0
 40
0.0
  0
LTYPE
  5
15
330
5
100
AcDbSymbolTableRecord
100
AcDbLinetypeTableRecord
  2
ByLayer
 70
     0
  3

 72
    65
 73
     0
 40
0.0
  0
LTYPE
  5
16
330
5
100
AcDbSymbolTableRecord
100
AcDbLinetypeTableRecord
  2
Continuous
 70
     0
  3
Solid line
 72
    65
 73
     0
 40
0.0
  0
LTYPE
  5
2A
330
5
100
AcDbSymbolTableRecord
100
AcDbLinetypeTableRecord
  2
HIDDEN
 70
     0
  3
Hidden __ __ __ __ __ __ __ __ __ __ __ __ __ __
 72
    65
 73
     2
 40
1.905
 49
1.27
 74
     0
 49
-0.635
 74
     0
  0
LTYPE
  5
2B
330
5
100
AcDbSymbolTableRecord
100
AcDbLinetypeTableRecord
  2
PHANTOM
 70
     0
  3
Phantom ______  __  __  ______  __  __  ______
 72
    65
 73
     6
 40
12.7
 49
6.35
 74
     0
 49
-1.27
 74
     0
 49
1.27
 74
     0
 49
-1.27
 74
     0
 49
1.27
 74
     0
 49
-1.27
 74
     0
  0
LTYPE
  5
2C
330
5
100
AcDbSymbolTableRecord
100
AcDbLinetypeTableRecord
  2
CENTER
 70
     0
  3
Center ____ _ ____ _ ____ _ ____ _ ____ _ ____
 72
    65
 73
     4
 40
10.16
 49
6.35
 74
     0
 49
-1.27
 74
     0
 49
1.27
 74
     0
 49
-1.27
 74
     0
  0
LTYPE
  5
2D
330
5
100
AcDbSymbolTableRecord
100
AcDbLinetypeTableRecord
  2
CENTERX2
 70
     0
  3
Center (2x) ________  __  ________  __  _____
 72
    65
 73
     4
 40
20.32
 49
12.7
 74
     0
 49
-2.54
 74
     0
 49
2.54
 74
     0
 49
-2.54
 74
     0
  0
LTYPE
  5
2E
330
5
100
AcDbSymbolTableRecord
100
AcDbLinetypeTableRecord
  2
DOT2
 70
     0
  3
Dot (.5x) ........................................
 72
    65
 73
     2
 40
0.635
 49
0.0
 74
     0
 49
-0.635
 74
     0
  0
ENDTAB
  0
TABLE
  2
LAYER
  5
2
330
0
100
AcDbSymbolTable
 70
     2
  0
LAYER
  5
10
330
2
100
AcDbSymbolTableRecord
100
AcDbLayerTableRecord
  2
0
 70
     0
 62
     7
  6
Continuous
370
    -3
390
F
  0
LAYER
  5
2F
330
2
100
AcDbSymbolTableRecord
100
AcDbLayerTableRecord
  2
SLD-0
 70
     0
 62
   179
  6
Continuous
370
     0
390
F
  0
ENDTAB
  0
TABLE
  2
STYLE
  5
3
330
0
100
AcDbSymbolTable
 70
     9
  0
STYLE
  5
11
330
3
100
AcDbSymbolTableRecord
100
AcDbTextStyleTableRecord
  2
Standard
 70
     0
 40
0.0
 41
1.0
 50
0.0
 71
     0
 42
2.5
  3
txt
  4
bigfont
  0
STYLE
  5
38
330
3
100
AcDbSymbolTableRecord
100
AcDbTextStyleTableRecord
  2
SLDTEXTSTYLE0
 70
     0
 40
0.0
 41
0.6255251993
 50
0.0
 71
     0
 42
0.2
  3
TXT
  4
bigfont
  0
STYLE
  5
42
330
3
100
AcDbSymbolTableRecord
100
AcDbTextStyleTableRecord
  2
SLDTEXTSTYLE1
 70
     0
 40
0.0
 41
0.62362615
 50
0.0
 71
     0
 42
0.2
  3
TXT
  4
bigfont
  0
STYLE
  5
4C
330
3
100
AcDbSymbolTableRecord
100
AcDbTextStyleTableRecord
  2
SLDTEXTSTYLE2
 70
     0
 40
0.0
 41
0.6213565545
 50
0.0
 71
     0
 42
0.2
  3
TXT
  4
bigfont
  0
STYLE
  5
62
330
3
100
AcDbSymbolTableRecord
100
AcDbTextStyleTableRecord
  2
SLDTEXTSTYLE3
 70
     0
 40
0.0
 41
0.622603585
 50
0.0
 71
     0
 42
0.2
  3
TXT
  4
bigfont
  0
STYLE
  5
67
330
3
100
AcDbSymbolTableRecord
100
AcDbTextStyleTableRecord
  2
SLDTEXTSTYLE4
 70
     0
 40
0.0
 41
0.6272516078
 50
0.0
 71
     0
 42
0.2
  3
TXT
  4
bigfont
  0
STYLE
  5
206
330
3
100
AcDbSymbolTableRecord
100
AcDbTextStyleTableRecord
  2
SLDTEXTSTYLE5
 70
     0
 40
0.0
 41
0.6222509414
 50
0.0
 71
     0
 42
0.2
  3
TXT
  4
bigfont
  0
STYLE
  5
208
330
3
100
AcDbSymbolTableRecord
100
AcDbTextStyleTableRecord
  2
SLDTEXTSTYLE6
 70
     0
 40
0.0
 41
0.6236261149
 50
0.0
 71
     0
 42
0.2
  3
TXT
  4
bigfont
  0
STYLE
  5
20A
330
3
100
AcDbSymbolTableRecord
100
AcDbTextStyleTableRecord
  2
SLDTEXTSTYLE7
 70
     0
 40
0.0
 41
0.6244080763
 50
0.0
 71
     0
 42
0.2
  3
TXT
  4
bigfont
  0
ENDTAB
  0
TABLE
  2
VIEW
  5
6
330
0
100
AcDbSymbolTable
 70
     0
  0
ENDTAB
  0
TABLE
  2
UCS
  5
7
330
0
100
AcDbSymbolTable
 70
     0
  0
ENDTAB
  0
TABLE
  2
APPID
  5
9
330
0
100
AcDbSymbolTable
 70
     1
  0
APPID
  5
12
330
9
100
AcDbSymbolTableRecord
100
AcDbRegAppTableRecord
  2
ACAD
 70
     0
  0
ENDTAB
  0
TABLE
  2
DIMSTYLE
  5
A
330
0
100
AcDbSymbolTable
 70
     1
100
AcDbDimStyleTable
  0
DIMSTYLE
105
27
330
A
100
AcDbSymbolTableRecord
100
AcDbDimStyleTableRecord
  2
ISO-25
 70
     0
 41
2.5
 42
0.625
 43
3.75
 44
1.25
 73
     0
 74
     0
 77
     1
 78
     8
140
2.5
141
2.5
143
0.0393700787
147
0.625
171
     3
172
     1
271
     2
272
     2
274
     3
278
    44
283
     0
284
     8
340
11
  0
ENDTAB
  0
TABLE
  2
BLOCK_RECORD
  5
1
330
0
100
AcDbSymbolTable
 70
     7
  0
BLOCK_RECORD
  5
1F
330
1
100
AcDbSymbolTableRecord
100
AcDbBlockTableRecord
  2
*Model_Space
340
22
  0
BLOCK_RECORD
  5
1B
330
1
100
AcDbSymbolTableRecord
100
AcDbBlockTableRecord
  2
*Paper_Space
340
1E
  0
BLOCK_RECORD
  5
23
330
1
100
AcDbSymbolTableRecord
100
AcDbBlockTableRecord
  2
*Paper_Space0
340
26
  0
BLOCK_RECORD
  5
30
330
1
100
AcDbSymbolTableRecord
100
AcDbBlockTableRecord
  2
KOZU0001
340
0
102
{BLKREFS
331
20C
102
}
  0
BLOCK_RECORD
  5
3A
330
1
100
AcDbSymbolTableRecord
100
AcDbBlockTableRecord
  2
KOZU0002
340
0
102
{BLKREFS
331
20D
102
}
  0
BLOCK_RECORD
  5
44
330
1
100
AcDbSymbolTableRecord
100
AcDbBlockTableRecord
  2
KOZU0003
340
0
102
{BLKREFS
331
20E
102
}
  0
BLOCK_RECORD
  5
4E
330
1
100
AcDbSymbolTableRecord
100
AcDbBlockTableRecord
  2
KOZU0004
340
0
102
{BLKREFS
331
20F
102
}
  0
BLOCK_RECORD
  5
57
330
1
100
AcDbSymbolTableRecord
100
AcDbBlockTableRecord
  2
KOZU0005
340
0
102
{BLKREFS
331
210
102
}
  0
BLOCK_RECORD
  5
5F
330
1
100
AcDbSymbolTableRecord
100
AcDbBlockTableRecord
  2
SW_NOTE_0
340
0
102
{BLKREFS
331
66
102
}
  0
ENDTAB
  0
ENDSEC
  0
SECTION
  2
BLOCKS
  0
BLOCK
  5
20
330
1F
100
AcDbEntity
  8
0
100
AcDbBlockBegin
  2
*Model_Space
 70
     0
 71
     0
 10
0.0
 20
0.0
 30
0.0
  3
*Model_Space
  1

  0
ENDBLK
  5
21
330
1F
100
AcDbEntity
  8
0
100
AcDbBlockEnd
  0
BLOCK
  5
1C
330
1B
100
AcDbEntity
 67
     1
  8
0
100
AcDbBlockBegin
  2
*Paper_Space
 70
     0
 71
     0
 10
0.0
 20
0.0
 30
0.0
  3
*Paper_Space
  1

  0
ENDBLK
  5
1D
330
1B
100
AcDbEntity
 67
     1
  8
0
100
AcDbBlockEnd
  0
BLOCK
  5
24
330
23
100
AcDbEntity
  8
0
100
AcDbBlockBegin
  2
*Paper_Space0
 70
     0
 71
     0
 10
0.0
 20
0.0
 30
0.0
  3
*Paper_Space0
  1

  0
ENDBLK
  5
25
330
23
100
AcDbEntity
  8
0
100
AcDbBlockEnd
  0
BLOCK
  5
31
330
30
100
AcDbEntity
  8
0
100
AcDbBlockBegin
  2
KOZU0001
 70
     0
 71
     0
 10
0.0
 20
0.0
 30
0.0
  3
KOZU0001
  1

  0
LINE
  5
33
330
30
100
AcDbEntity
  8
SLD-0
  6
Continuous
 62
   179
100
AcDbLine
 10
0.0
 20
0.0
 30
0.0
 11
14.3735284439
 21
27.6414008536
 31
0.0
  0
LINE
  5
34
330
30
100
AcDbEntity
  8
SLD-0
  6
Continuous
 62
   179
100
AcDbLine
 10
0.0
 20
0.0
 30
0.0
 11
0.9444955037
 21
3.0344943467
 31
0.0
  0
LINE
  5
35
330
30
100
AcDbEntity
  8
SLD-0
  6
Continuous
 62
   179
100
AcDbLine
 10
0.0
 20
0.0
 30
0.0
 11
1.9417271733
 21
2.5159338785
 31
0.0
  0
LINE
  5
36
330
30
100
AcDbEntity
  8
SLD-0
  6
Continuous
 62
   179
100
AcDbLine
 10
0.0
 20
0.0
 30
0.0
 11
14.3735284439
 21
27.6414008536
 31
0.0
  0
LINE
  5
37
330
30
100
AcDbEntity
  8
SLD-0
  6
Continuous
 62
   179
100
AcDbLine
 10
14.3735284439
 20
27.6414008536
 30
0.0
 11
33.1229083622
 21
27.6414008536
 31
0.0
  0
MTEXT
  5
39
330
30
100
AcDbEntity
  8
SLD-0
100
AcDbMText
 10
16.2089084471
 20
31.0961202813
 30
0.0
 40
3.2000000477
 41
0.0
 71
     1
 72
     1
  1
ＲＣ１／８
  7
SLDTEXTSTYLE0
 73
     1
 44
1.0
  0
ENDBLK
  5
32
330
30
100
AcDbEntity
  8
0
100
AcDbBlockEnd
  0
BLOCK
  5
3B
330
3A
100
AcDbEntity
  8
0
100
AcDbBlockBegin
  2
KOZU0002
 70
     0
 71
     0
 10
0.0
 20
0.0
 30
0.0
  3
KOZU0002
  1

  0
LINE
  5
3D
330
3A
100
AcDbEntity
  8
SLD-0
  6
Continuous
 62
   179
100
AcDbLine
 10
0.0
 20
0.0
 30
0.0
 11
11.162901934
 21
-30.402067897
 31
0.0
  0
LINE
  5
3E
330
3A
100
AcDbEntity
  8
SLD-0
  6
Continuous
 62
   179
100
AcDbLine
 10
0.0
 20
0.0
 30
0.0
 11
1.6057077066
 21
-2.7426138003
 31
0.0
  0
LINE
  5
3F
330
3A
100
AcDbEntity
  8
SLD-0
  6
Continuous
 62
   179
100
AcDbLine
 10
0.0
 20
0.0
 30
0.0
 11
0.5505844601
 21
-3.1300294645
 31
0.0
  0
LINE
  5
40
330
3A
100
AcDbEntity
  8
SLD-0
  6
Continuous
 62
   179
100
AcDbLine
 10
0.0
 20
0.0
 30
0.0
 11
11.162901934
 21
-30.402067897
 31
0.0
  0
LINE
  5
41
330
3A
100
AcDbEntity
  8
SLD-0
  6
Continuous
 62
   179
100
AcDbLine
 10
11.162901934
 20
-30.402067897
 30
0.0
 11
38.7035128499
 21
-30.402067897
 31
0.0
  0
MTEXT
  5
43
330
3A
100
AcDbEntity
  8
SLD-0
100
AcDbMText
 10
15.3895129586
 20
-26.9473484694
 30
0.0
 40
3.2000000477
 41
0.0
 71
     1
 72
     1
  1
２－Ｍ６深１２
  7
SLDTEXTSTYLE1
 73
     1
 44
1.0
  0
ENDBLK
  5
3C
330
3A
100
AcDbEntity
  8
0
100
AcDbBlockEnd
  0
BLOCK
  5
45
330
44
100
AcDbEntity
  8
0
100
AcDbBlockBegin
  2
KOZU0003
 70
     0
 71
     0
 10
0.0
 20
0.0
 30
0.0
  3
KOZU0003
  1

  0
LINE
  5
47
330
44
100
AcDbEntity
  8
SLD-0
  6
Continuous
 62
   179
100
AcDbLine
 10
0.0
 20
0.0
 30
0.0
 11
6.9247605887
 21
-22.6166402749
 31
0.0
  0
LINE
  5
48
330
44
100
AcDbEntity
  8
SLD-0
  6
Continuous
 62
   179
100
AcDbLine
 10
0.0
 20
0.0
 30
0.0
 11
1.4531430553
 21
-2.8264116752
 31
0.0
  0
LINE
  5
49
330
44
100
AcDbEntity
  8
SLD-0
  6
Continuous
 62
   179
100
AcDbLine
 10
0.0
 20
0.0
 30
0.0
 11
0.3783916041
 21
-3.1554789637
 31
0.0
  0
LINE
  5
4A
330
44
100
AcDbEntity
  8
SLD-0
  6
Continuous
 62
   179
100
AcDbLine
 10
0.0
 20
0.0
 30
0.0
 11
6.9247605887
 21
-22.6166402749
 31
0.0
  0
LINE
  5
4B
330
44
100
AcDbEntity
  8
SLD-0
  6
Continuous
 62
   179
100
AcDbLine
 10
6.9247605887
 20
-22.6166402749
 30
0.0
 11
56.9877965127
 21
-22.6166402749
 31
0.0
  0
MTEXT
  5
4D
330
44
100
AcDbEntity
  8
SLD-0
100
AcDbMText
 10
11.2737967048
 20
-19.1619208473
 30
0.0
 40
3.2000000477
 41
0.0
 71
     1
 72
     1
  1
１６－Ｍ５ｘ０．７ネジ深１０
  7
SLDTEXTSTYLE2
 73
     1
 44
1.0
  0
ENDBLK
  5
46
330
44
100
AcDbEntity
  8
0
100
AcDbBlockEnd
  0
BLOCK
  5
4F
330
4E
100
AcDbEntity
  8
0
100
AcDbBlockBegin
  2
KOZU0004
 70
     0
 71
     0
 10
0.0
 20
0.0
 30
0.0
  3
KOZU0004
  1

  0
LINE
  5
51
330
4E
100
AcDbEntity
  8
SLD-0
  6
Continuous
 62
   179
100
AcDbLine
 10
0.0
 20
0.0
 30
0.0
 11
11.3207933486
 21
31.0201924262
 31
0.0
  0
LINE
  5
52
330
4E
100
AcDbEntity
  8
SLD-0
  6
Continuous
 62
   179
100
AcDbLine
 10
0.0
 20
0.0
 30
0.0
 11
0.5444376823
 21
3.1311044867
 31
0.0
  0
LINE
  5
53
330
4E
100
AcDbEntity
  8
SLD-0
  6
Continuous
 62
   179
100
AcDbLine
 10
0.0
 20
0.0
 30
0.0
 11
1.6003195736
 21
2.7457612713
 31
0.0
  0
LINE
  5
54
330
4E
100
AcDbEntity
  8
SLD-0
  6
Continuous
 62
   179
100
AcDbLine
 10
0.0
 20
0.0
 30
0.0
 11
11.3207933486
 21
31.0201924262
 31
0.0
  0
LINE
  5
55
330
4E
100
AcDbEntity
  8
SLD-0
  6
Continuous
 62
   179
100
AcDbLine
 10
11.3207933486
 20
31.0201924262
 30
0.0
 11
31.7699841033
 21
31.0201924262
 31
0.0
  0
MTEXT
  5
56
330
4E
100
AcDbEntity
  8
SLD-0
100
AcDbMText
 10
14.8559841882
 20
34.4749118538
 30
0.0
 40
3.2000000477
 41
0.0
 71
     1
 72
     1
  1
ＲＣ１／８
  7
SLDTEXTSTYLE0
 73
     1
 44
1.0
  0
ENDBLK
  5
50
330
4E
100
AcDbEntity
  8
0
100
AcDbBlockEnd
  0
BLOCK
  5
58
330
57
100
AcDbEntity
  8
0
100
AcDbBlockBegin
  2
KOZU0005
 70
     0
 71
     0
 10
0.0
 20
0.0
 30
0.0
  3
KOZU0005
  1

  0
LINE
  5
5A
330
57
100
AcDbEntity
  8
SLD-0
  6
Continuous
 62
   179
100
AcDbLine
 10
0.0
 20
0.0
 30
0.0
 11
11.8208535394
 21
-29.4179450385
 31
0.0
  0
LINE
  5
5B
330
57
100
AcDbEntity
  8
SLD-0
  6
Continuous
 62
   179
100
AcDbLine
 10
0.0
 20
0.0
 30
0.0
 11
1.6877490431
 21
-2.6929037978
 31
0.0
  0
LINE
  5
5C
330
57
100
AcDbEntity
  8
SLD-0
  6
Continuous
 62
   179
100
AcDbLine
 10
0.0
 20
0.0
 30
0.0
 11
0.6447987375
 21
-3.1119868709
 31
0.0
  0
LINE
  5
5D
330
57
100
AcDbEntity
  8
SLD-0
  6
Continuous
 62
   179
100
AcDbLine
 10
0.0
 20
0.0
 30
0.0
 11
11.8208535394
 21
-29.4179450385
 31
0.0
  0
LINE
  5
5E
330
57
100
AcDbEntity
  8
SLD-0
  6
Continuous
 62
   179
100
AcDbLine
 10
11.8208535394
 20
-29.4179450385
 30
0.0
 11
45.4946526673
 21
-29.4179450385
 31
0.0
  0
INSERT
  5
66
330
57
100
AcDbEntity
  8
SLD-0
 62
     7
100
AcDbBlockReference
  2
SW_NOTE_0
 10
15.7806527999
 20
-30.2535006581
 30
0.0
  0
MTEXT
  5
68
330
57
100
AcDbEntity
  8
SLD-0
100
AcDbMText
 10
15.7806527999
 20
-31.5792256946
 30
0.0
 40
3.2000000477
 41
0.0
 71
     1
 72
     1
  1
（別注）
  7
SLDTEXTSTYLE4
 73
     1
 44
1.0
  0
ENDBLK
  5
59
330
57
100
AcDbEntity
  8
0
100
AcDbBlockEnd
  0
BLOCK
  5
60
330
5F
100
AcDbEntity
  8
0
100
AcDbBlockBegin
  2
SW_NOTE_0
 70
     0
 71
     0
 10
0.0
 20
0.0
 30
0.0
  3
SW_NOTE_0
  1

  0
MTEXT
  5
63
330
5F
100
AcDbEntity
  8
SLD-0
100
AcDbMText
 10
0.0
 20
4.2902750472
 30
0.0
 40
3.2000000477
 41
0.0
 71
     1
 72
     1
  1
２－
  7
SLDTEXTSTYLE3
 73
     1
 44
1.0
  0
MTEXT
  5
64
330
5F
100
AcDbEntity
  8
SLD-0
100
AcDbMText
 10
10.6533337384
 20
4.2902750472
 30
0.0
 40
3.2000000477
 41
0.0
 71
     1
 72
     1
  1
%%c
  7
SLDTEXTSTYLE3
 73
     1
 44
1.0
  0
MTEXT
  5
65
330
5F
100
AcDbEntity
  8
SLD-0
100
AcDbMText
 10
15.8382225782
 20
4.2902750472
 30
0.0
 40
3.2000000477
 41
0.0
 71
     1
 72
     1
  1
５．３キリ穴
  7
SLDTEXTSTYLE3
 73
     1
 44
1.0
  0
ENDBLK
  5
61
330
5F
100
AcDbEntity
  8
0
100
AcDbBlockEnd
  0
ENDSEC
  0
SECTION
  2
ENTITIES
  0
LINE
  5
69
330
1F
100
AcDbEntity
  8
SLD-0
  6
Continuous
 62
   179
100
AcDbLine
 10
287.3348713348
 20
62.1808786197
 30
0.0
 11
287.3348713348
 21
115.1808786197
 31
0.0
  0
LINE
  5
6A
330
1F
100
AcDbEntity
  8
SLD-0
  6
Continuous
 62
   179
100
AcDbLine
 10
287.3348713348
 20
115.1808786197
 30
0.0
 11
285.8348713348
 21
116.6808786197
 31
0.0
  0
LINE
  5
6B
330
1F
100
AcDbEntity
  8
SLD-0
  6
Continuous
 62
   179
100
AcDbLine
 10
285.8348713348
 20
116.6808786197
 30
0.0
 11
152.3348713348
 21
116.6808786197
 31
0.0
  0
LINE
  5
6C
330
1F
100
AcDbEntity
  8
SLD-0
  6
Continuous
 62
   179
100
AcDbLine
 10
138.9184633968
 20
106.6808785366
 30
0.0
 11
117.3348713968
 21
106.6808785366
 31
0.0
  0
LINE
  5
6D
330
1F
100
AcDbEntity
  8
SLD-0
  6
Continuous
 62
   179
100
AcDbLine
 10
117.3348713968
 20
106.6808785366
 30
0.0
 11
117.3348713968
 21
97.1808785366
 31
0.0
  0
LINE
  5
6E
330
1F
100
AcDbEntity
  8
SLD-0
  6
Continuous
 62
   179
100
AcDbLine
 10
117.3348713968
 20
97.1808785366
 30
0.0
 11
163.5348713968
 21
97.1808785366
 31
0.0
  0
LINE
  5
6F
330
1F
100
AcDbEntity
  8
SLD-0
  6
Continuous
 62
   179
100
AcDbLine
 10
163.5348713968
 20
97.1808785366
 30
0.0
 11
163.5348713968
 21
80.1808787029
 31
0.0
  0
LINE
  5
70
330
1F
100
AcDbEntity
  8
SLD-0
  6
Continuous
 62
   179
100
AcDbLine
 10
163.5348713968
 20
80.1808787029
 30
0.0
 11
117.3348713968
 21
80.1808787029
 31
0.0
  0
LINE
  5
71
330
1F
100
AcDbEntity
  8
SLD-0
  6
Continuous
 62
   179
100
AcDbLine
 10
117.3348713968
 20
80.1808787029
 30
0.0
 11
117.3348713968
 21
70.6808787029
 31
0.0
  0
LINE
  5
72
330
1F
100
AcDbEntity
  8
SLD-0
  6
Continuous
 62
   179
100
AcDbLine
 10
117.3348713968
 20
70.6808787029
 30
0.0
 11
138.9184633968
 21
70.6808787029
 31
0.0
  0
LINE
  5
73
330
1F
100
AcDbEntity
  8
SLD-0
  6
Continuous
 62
   179
100
AcDbLine
 10
152.3348713348
 20
60.6808786197
 30
0.0
 11
285.8348713348
 21
60.6808786197
 31
0.0
  0
LINE
  5
74
330
1F
100
AcDbEntity
  8
SLD-0
  6
Continuous
 62
   179
100
AcDbLine
 10
285.8348713348
 20
60.6808786197
 30
0.0
 11
287.3348713348
 21
62.1808786197
 31
0.0
  0
LINE
  5
75
330
1F
100
AcDbEntity
  8
SLD-0
  6
Continuous
 62
   179
100
AcDbLine
 10
285.8348713348
 20
60.6808786197
 30
0.0
 11
285.8348713348
 21
72.7121586197
 31
0.0
  0
LINE
  5
76
330
1F
100
AcDbEntity
  8
SLD-0
  6
Continuous
 62
   179
100
AcDbLine
 10
285.8348713348
 20
72.7121586197
 30
0.0
 11
274.3348713348
 21
72.7121586197
 31
0.0
  0
LINE
  5
77
330
1F
100
AcDbEntity
  8
SLD-0
  6
Continuous
 62
   179
100
AcDbLine
 10
272.3348713348
 20
74.7121586197
 30
0.0
 11
272.3348713348
 21
102.6495976197
 31
0.0
  0
LINE
  5
78
330
1F
100
AcDbEntity
  8
SLD-0
  6
Continuous
 62
   179
100
AcDbLine
 10
274.3348713348
 20
104.6495976197
 30
0.0
 11
285.8348713348
 21
104.6495976197
 31
0.0
  0
LINE
  5
79
330
1F
100
AcDbEntity
  8
SLD-0
  6
Continuous
 62
   179
100
AcDbLine
 10
285.8348713348
 20
104.6495976197
 30
0.0
 11
285.8348713348
 21
116.6808786197
 31
0.0
  0
LINE
  5
7A
330
1F
100
AcDbEntity
  8
SLD-0
  6
Continuous
 62
   179
100
AcDbLine
 10
285.8348713348
 20
104.6495976197
 30
0.0
 11
287.3348713348
 21
103.1495976197
 31
0.0
  0
LINE
  5
7B
330
1F
100
AcDbEntity
  8
SLD-0
  6
Continuous
 62
   179
100
AcDbLine
 10
267.3348713968
 20
98.4512077029
 30
0.0
 11
266.3348713968
 21
99.4512077029
 31
0.0
  0
LINE
  5
7C
330
1F
100
AcDbEntity
  8
SLD-0
  6
Continuous
 62
   179
100
AcDbLine
 10
266.3348713968
 20
99.4512077029
 30
0.0
 11
254.3348713968
 21
99.4512077029
 31
0.0
  0
LINE
  5
7D
330
1F
100
AcDbEntity
  8
SLD-0
  6
Continuous
 62
   179
100
AcDbLine
 10
252.3348713968
 20
101.4512077029
 30
0.0
 11
252.3348713968
 21
116.6808787029
 31
0.0
  0
LINE
  5
7E
330
1F
100
AcDbEntity
  8
SLD-0
  6
Continuous
 62
   179
100
AcDbLine
 10
267.3348713968
 20
116.6808787029
 30
0.0
 11
267.3348713968
 21
60.6808787029
 31
0.0
  0
LINE
  5
7F
330
1F
100
AcDbEntity
  8
SLD-0
  6
Continuous
 62
   179
100
AcDbLine
 10
252.3348713968
 20
60.6808787029
 30
0.0
 11
252.3348713968
 21
75.9105487029
 31
0.0
  0
LINE
  5
80
330
1F
100
AcDbEntity
  8
SLD-0
  6
Continuous
 62
   179
100
AcDbLine
 10
254.3348713968
 20
77.9105487029
 30
0.0
 11
266.3348713968
 21
77.9105487029
 31
0.0
  0
LINE
  5
81
330
1F
100
AcDbEntity
  8
SLD-0
  6
Continuous
 62
   179
100
AcDbLine
 10
266.3348713968
 20
77.9105487029
 30
0.0
 11
267.3348713968
 21
78.9105487029
 31
0.0
  0
LINE
  5
82
330
1F
100
AcDbEntity
  8
SLD-0
  6
Continuous
 62
   179
100
AcDbLine
 10
266.3348713968
 20
77.9105487029
 30
0.0
 11
266.3348713968
 21
99.4512077029
 31
0.0
  0
LINE
  5
83
330
1F
100
AcDbEntity
  8
SLD-0
  6
Continuous
 62
   179
100
AcDbLine
 10
232.3348713968
 20
116.6808787029
 30
0.0
 11
232.3348713968
 21
60.6808787029
 31
0.0
  0
LINE
  5
84
330
1F
100
AcDbEntity
  8
SLD-0
  6
Continuous
 62
   179
100
AcDbLine
 10
192.3348713968
 20
60.6808787029
 30
0.0
 11
192.3348713968
 21
116.6808787029
 31
0.0
  0
LINE
  5
85
330
1F
100
AcDbEntity
  8
SLD-0
  6
Continuous
 62
   179
100
AcDbLine
 10
152.3348713348
 20
116.6808786197
 30
0.0
 11
152.3348713348
 21
97.1808786197
 31
0.0
  0
LINE
  5
86
330
1F
100
AcDbEntity
  8
SLD-0
  6
Continuous
 62
   179
100
AcDbLine
 10
138.8348713968
 20
106.6808787029
 30
0.0
 11
138.8348713968
 21
107.3808787029
 31
0.0
  0
LINE
  5
87
330
1F
100
AcDbEntity
  8
SLD-0
  6
Continuous
 62
   179
100
AcDbLine
 10
138.8348713968
 20
107.3808787029
 30
0.0
 11
125.8348713968
 21
107.3808787029
 31
0.0
  0
LINE
  5
88
330
1F
100
AcDbEntity
  8
SLD-0
  6
Continuous
 62
   179
100
AcDbLine
 10
125.8348713968
 20
107.3808787029
 30
0.0
 11
125.8348713968
 21
106.6808787029
 31
0.0
  0
LINE
  5
89
330
1F
100
AcDbEntity
  8
SLD-0
  6
Continuous
 62
   179
100
AcDbLine
 10
125.8348713968
 20
107.3808787029
 30
0.0
 11
126.1348713968
 21
107.6808787029
 31
0.0
  0
LINE
  5
8A
330
1F
100
AcDbEntity
  8
SLD-0
  6
Continuous
 62
   179
100
AcDbLine
 10
126.1348713968
 20
107.6808787029
 30
0.0
 11
138.5348713968
 21
107.6808787029
 31
0.0
  0
LINE
  5
8B
330
1F
100
AcDbEntity
  8
SLD-0
  6
Continuous
 62
   179
100
AcDbLine
 10
138.5348713968
 20
107.6808787029
 30
0.0
 11
138.8348713968
 21
107.3808787029
 31
0.0
  0
LINE
  5
8C
330
1F
100
AcDbEntity
  8
SLD-0
  6
Continuous
 62
   179
100
AcDbLine
 10
135.8348713968
 20
108.1808787029
 30
0.0
 11
133.8348713968
 21
108.1808787029
 31
0.0
  0
LINE
  5
8D
330
1F
100
AcDbEntity
  8
SLD-0
  6
Continuous
 62
   179
100
AcDbLine
 10
133.8348713968
 20
109.1808787029
 30
0.0
 11
135.8348713968
 21
109.1808787029
 31
0.0
  0
LINE
  5
8E
330
1F
100
AcDbEntity
  8
SLD-0
  6
Continuous
 62
   179
100
AcDbLine
 10
134.8348713968
 20
109.1808787029
 30
0.0
 11
134.8348713968
 21
110.1808787029
 31
0.0
  0
LINE
  5
8F
330
1F
100
AcDbEntity
  8
SLD-0
  6
Continuous
 62
   179
100
AcDbLine
 10
134.8348713968
 20
110.1808787029
 30
0.0
 11
134.3348713968
 21
110.6808787029
 31
0.0
  0
LINE
  5
90
330
1F
100
AcDbEntity
  8
SLD-0
  6
Continuous
 62
   179
100
AcDbLine
 10
134.3348713968
 20
110.6808787029
 30
0.0
 11
130.3348713968
 21
110.6808787029
 31
0.0
  0
LINE
  5
91
330
1F
100
AcDbEntity
  8
SLD-0
  6
Continuous
 62
   179
100
AcDbLine
 10
130.3348713968
 20
110.6808787029
 30
0.0
 11
129.8348713968
 21
110.1808787029
 31
0.0
  0
LINE
  5
92
330
1F
100
AcDbEntity
  8
SLD-0
  6
Continuous
 62
   179
100
AcDbLine
 10
129.8348713968
 20
110.1808787029
 30
0.0
 11
129.8348713968
 21
107.6808787029
 31
0.0
  0
LINE
  5
93
330
1F
100
AcDbEntity
  8
SLD-0
  6
Continuous
 62
   179
100
AcDbLine
 10
129.8348713968
 20
110.1808787029
 30
0.0
 11
134.8348713968
 21
110.1808787029
 31
0.0
  0
LINE
  5
94
330
1F
100
AcDbEntity
  8
SLD-0
  6
Continuous
 62
   179
100
AcDbLine
 10
134.8348713968
 20
108.1808787029
 30
0.0
 11
134.8348713968
 21
107.6808787029
 31
0.0
  0
LINE
  5
95
330
1F
100
AcDbEntity
  8
SLD-0
  6
Continuous
 62
   179
100
AcDbLine
 10
134.8348713968
 20
97.1808787029
 30
0.0
 11
134.8348713968
 21
80.1808787029
 31
0.0
  0
LINE
  5
96
330
1F
100
AcDbEntity
  8
SLD-0
  6
Continuous
 62
   179
100
AcDbLine
 10
129.8348713968
 20
80.1808787029
 30
0.0
 11
129.8348713968
 21
97.1808787029
 31
0.0
  0
LINE
  5
97
330
1F
100
AcDbEntity
  8
SLD-0
  6
Continuous
 62
   179
100
AcDbLine
 10
125.8348713968
 20
70.6808787029
 30
0.0
 11
125.8348713968
 21
69.9808787029
 31
0.0
  0
LINE
  5
98
330
1F
100
AcDbEntity
  8
SLD-0
  6
Continuous
 62
   179
100
AcDbLine
 10
125.8348713968
 20
69.9808787029
 30
0.0
 11
126.1348713968
 21
69.6808787029
 31
0.0
  0
LINE
  5
99
330
1F
100
AcDbEntity
  8
SLD-0
  6
Continuous
 62
   179
100
AcDbLine
 10
126.1348713968
 20
69.6808787029
 30
0.0
 11
138.5348713968
 21
69.6808787029
 31
0.0
  0
LINE
  5
9A
330
1F
100
AcDbEntity
  8
SLD-0
  6
Continuous
 62
   179
100
AcDbLine
 10
138.5348713968
 20
69.6808787029
 30
0.0
 11
138.8348713968
 21
69.9808787029
 31
0.0
  0
LINE
  5
9B
330
1F
100
AcDbEntity
  8
SLD-0
  6
Continuous
 62
   179
100
AcDbLine
 10
138.8348713968
 20
69.9808787029
 30
0.0
 11
125.8348713968
 21
69.9808787029
 31
0.0
  0
LINE
  5
9C
330
1F
100
AcDbEntity
  8
SLD-0
  6
Continuous
 62
   179
100
AcDbLine
 10
129.8348713968
 20
69.6808787029
 30
0.0
 11
129.8348713968
 21
67.1808787029
 31
0.0
  0
LINE
  5
9D
330
1F
100
AcDbEntity
  8
SLD-0
  6
Continuous
 62
   179
100
AcDbLine
 10
129.8348713968
 20
67.1808787029
 30
0.0
 11
130.3348713968
 21
66.6808787029
 31
0.0
  0
LINE
  5
9E
330
1F
100
AcDbEntity
  8
SLD-0
  6
Continuous
 62
   179
100
AcDbLine
 10
130.3348713968
 20
66.6808787029
 30
0.0
 11
134.3348713968
 21
66.6808787029
 31
0.0
  0
LINE
  5
9F
330
1F
100
AcDbEntity
  8
SLD-0
  6
Continuous
 62
   179
100
AcDbLine
 10
134.3348713968
 20
66.6808787029
 30
0.0
 11
134.8348713968
 21
67.1808787029
 31
0.0
  0
LINE
  5
A0
330
1F
100
AcDbEntity
  8
SLD-0
  6
Continuous
 62
   179
100
AcDbLine
 10
134.8348713968
 20
67.1808787029
 30
0.0
 11
134.8348713968
 21
68.1808787029
 31
0.0
  0
LINE
  5
A1
330
1F
100
AcDbEntity
  8
SLD-0
  6
Continuous
 62
   179
100
AcDbLine
 10
134.8348713968
 20
68.1808787029
 30
0.0
 11
130.8348713968
 21
68.1808787029
 31
0.0
  0
LINE
  5
A2
330
1F
100
AcDbEntity
  8
SLD-0
  6
Continuous
 62
   179
100
AcDbLine
 10
130.8348713968
 20
69.1808787029
 30
0.0
 11
134.8348713968
 21
69.1808787029
 31
0.0
  0
LINE
  5
A3
330
1F
100
AcDbEntity
  8
SLD-0
  6
Continuous
 62
   179
100
AcDbLine
 10
134.8348713968
 20
69.1808787029
 30
0.0
 11
134.8348713968
 21
69.6808787029
 31
0.0
  0
LINE
  5
A4
330
1F
100
AcDbEntity
  8
SLD-0
  6
Continuous
 62
   179
100
AcDbLine
 10
134.8348713968
 20
67.1808787029
 30
0.0
 11
129.8348713968
 21
67.1808787029
 31
0.0
  0
LINE
  5
A5
330
1F
100
AcDbEntity
  8
SLD-0
  6
Continuous
 62
   179
100
AcDbLine
 10
152.3348713348
 20
60.6808786197
 30
0.0
 11
152.3348713348
 21
80.1808786197
 31
0.0
  0
LINE
  5
A6
330
1F
100
AcDbEntity
  8
SLD-0
  6
Continuous
 62
   179
100
AcDbLine
 10
138.8348713968
 20
70.6808787029
 30
0.0
 11
138.8348713968
 21
69.9808787029
 31
0.0
  0
LINE
  5
A7
330
1F
100
AcDbEntity
  8
SLD-0
  6
Continuous
 62
   179
100
AcDbLine
 10
285.8348713348
 20
72.7121586197
 30
0.0
 11
287.3348713348
 21
74.2121586197
 31
0.0
  0
LINE
  5
A8
330
1F
100
AcDbEntity
  8
SLD-0
  6
Continuous
 62
   179
100
AcDbLine
 10
272.3348713968
 20
166.5665927029
 30
0.0
 11
272.3348713968
 21
169.5665927029
 31
0.0
  0
LINE
  5
A9
330
1F
100
AcDbEntity
  8
SLD-0
  6
Continuous
 62
   179
100
AcDbLine
 10
274.3348713968
 20
171.5665927029
 30
0.0
 11
285.8348713968
 21
171.5665927029
 31
0.0
  0
LINE
  5
AA
330
1F
100
AcDbEntity
  8
SLD-0
  6
Continuous
 62
   179
100
AcDbLine
 10
285.8348713968
 20
171.5665927029
 30
0.0
 11
287.3348713968
 21
173.0665927029
 31
0.0
  0
LINE
  5
AB
330
1F
100
AcDbEntity
  8
SLD-0
  6
Continuous
 62
   179
100
AcDbLine
 10
287.3348713968
 20
173.0665927029
 30
0.0
 11
287.3348713968
 21
216.0665927029
 31
0.0
  0
LINE
  5
AC
330
1F
100
AcDbEntity
  8
SLD-0
  6
Continuous
 62
   179
100
AcDbLine
 10
287.3348713968
 20
216.0665927029
 30
0.0
 11
285.8348713968
 21
217.5665927029
 31
0.0
  0
LINE
  5
AD
330
1F
100
AcDbEntity
  8
SLD-0
  6
Continuous
 62
   179
100
AcDbLine
 10
285.8348713968
 20
217.5665927029
 30
0.0
 11
274.3348713968
 21
217.5665927029
 31
0.0
  0
LINE
  5
AE
330
1F
100
AcDbEntity
  8
SLD-0
  6
Continuous
 62
   179
100
AcDbLine
 10
272.3348713968
 20
219.5665927029
 30
0.0
 11
272.3348713968
 21
222.5665927029
 31
0.0
  0
LINE
  5
AF
330
1F
100
AcDbEntity
  8
SLD-0
  6
Continuous
 62
   179
100
AcDbLine
 10
272.3348713968
 20
222.5665927029
 30
0.0
 11
267.6348713968
 21
222.5665927029
 31
0.0
  0
LINE
  5
B0
330
1F
100
AcDbEntity
  8
SLD-0
  6
Continuous
 62
   179
100
AcDbLine
 10
267.6348713968
 20
222.5665927029
 30
0.0
 11
267.3348713968
 21
222.2665927029
 31
0.0
  0
LINE
  5
B1
330
1F
100
AcDbEntity
  8
SLD-0
  6
Continuous
 62
   179
100
AcDbLine
 10
267.3348713968
 20
222.5665927029
 30
0.0
 11
152.3348713968
 21
222.5665927029
 31
0.0
  0
LINE
  5
B2
330
1F
100
AcDbEntity
  8
SLD-0
  6
Continuous
 62
   179
100
AcDbLine
 10
152.3348713968
 20
222.5665927029
 30
0.0
 11
117.3348713968
 21
208.5665927029
 31
0.0
  0
LINE
  5
B3
330
1F
100
AcDbEntity
  8
SLD-0
  6
Continuous
 62
   179
100
AcDbLine
 10
117.3348713968
 20
208.5665927029
 30
0.0
 11
117.3348713968
 21
180.5665927029
 31
0.0
  0
LINE
  5
B4
330
1F
100
AcDbEntity
  8
SLD-0
  6
Continuous
 62
   179
100
AcDbLine
 10
117.3348713968
 20
180.5665927029
 30
0.0
 11
152.3348713968
 21
166.5665927029
 31
0.0
  0
LINE
  5
B5
330
1F
100
AcDbEntity
  8
SLD-0
  6
Continuous
 62
   179
100
AcDbLine
 10
152.3348713968
 20
166.5665927029
 30
0.0
 11
267.3348713968
 21
166.5665927029
 31
0.0
  0
LINE
  5
B6
330
1F
100
AcDbEntity
  8
SLD-0
  6
Continuous
 62
   179
100
AcDbLine
 10
267.3348713968
 20
166.5665927029
 30
0.0
 11
267.3348713968
 21
222.5665927029
 31
0.0
  0
LINE
  5
B7
330
1F
100
AcDbEntity
  8
SLD-0
  6
Continuous
 62
   179
100
AcDbLine
 10
252.3348713968
 20
222.5665927029
 30
0.0
 11
252.3348713968
 21
207.3369227029
 31
0.0
  0
LINE
  5
B8
330
1F
100
AcDbEntity
  8
SLD-0
  6
Continuous
 62
   179
100
AcDbLine
 10
254.3348713968
 20
205.3369227029
 30
0.0
 11
266.3348713968
 21
205.3369227029
 31
0.0
  0
LINE
  5
B9
330
1F
100
AcDbEntity
  8
SLD-0
  6
Continuous
 62
   179
100
AcDbLine
 10
266.3348713968
 20
205.3369227029
 30
0.0
 11
266.3348713968
 21
183.7962627029
 31
0.0
  0
LINE
  5
BA
330
1F
100
AcDbEntity
  8
SLD-0
  6
Continuous
 62
   179
100
AcDbLine
 10
266.3348713968
 20
183.7962627029
 30
0.0
 11
254.3348713968
 21
183.7962627029
 31
0.0
  0
LINE
  5
BB
330
1F
100
AcDbEntity
  8
SLD-0
  6
Continuous
 62
   179
100
AcDbLine
 10
252.3348713968
 20
181.7962627029
 30
0.0
 11
252.3348713968
 21
166.5665927029
 31
0.0
  0
LINE
  5
BC
330
1F
100
AcDbEntity
  8
SLD-0
  6
Continuous
 62
   179
100
AcDbLine
 10
232.3348713968
 20
166.5665927029
 30
0.0
 11
232.3348713968
 21
222.5665927029
 31
0.0
  0
LINE
  5
BD
330
1F
100
AcDbEntity
  8
SLD-0
  6
Continuous
 62
   179
100
AcDbLine
 10
266.3348713968
 20
205.3369227029
 30
0.0
 11
267.3348713968
 21
204.3369227029
 31
0.0
  0
LINE
  5
BE
330
1F
100
AcDbEntity
  8
SLD-0
  6
Continuous
 62
   179
100
AcDbLine
 10
267.3348713968
 20
184.7962627029
 30
0.0
 11
266.3348713968
 21
183.7962627029
 31
0.0
  0
LINE
  5
BF
330
1F
100
AcDbEntity
  8
SLD-0
  6
Continuous
 62
   179
100
AcDbLine
 10
267.3348713968
 20
166.8665927029
 30
0.0
 11
267.6348713968
 21
166.5665927029
 31
0.0
  0
LINE
  5
C0
330
1F
100
AcDbEntity
  8
SLD-0
  6
Continuous
 62
   179
100
AcDbLine
 10
267.6348713968
 20
166.5665927029
 30
0.0
 11
272.3348713968
 21
166.5665927029
 31
0.0
  0
LINE
  5
C1
330
1F
100
AcDbEntity
  8
SLD-0
  6
Continuous
 62
   179
100
AcDbLine
 10
285.8348713968
 20
171.5665927029
 30
0.0
 11
285.8348713968
 21
217.5665927029
 31
0.0
  0
LINE
  5
C2
330
1F
100
AcDbEntity
  8
SLD-0
  6
Continuous
 62
   179
100
AcDbLine
 10
316.3902613968
 20
222.5665927029
 30
0.0
 11
372.3902613968
 21
222.5665927029
 31
0.0
  0
LINE
  5
C3
330
1F
100
AcDbEntity
  8
SLD-0
  6
Continuous
 62
   179
100
AcDbLine
 10
372.3902613968
 20
222.5665927029
 30
0.0
 11
372.3902613968
 21
166.5665927029
 31
0.0
  0
LINE
  5
C4
330
1F
100
AcDbEntity
  8
SLD-0
  6
Continuous
 62
   179
100
AcDbLine
 10
372.3902613968
 20
166.5665927029
 30
0.0
 11
316.3902613968
 21
166.5665927029
 31
0.0
  0
LINE
  5
C5
330
1F
100
AcDbEntity
  8
SLD-0
  6
Continuous
 62
   179
100
AcDbLine
 10
316.3902613968
 20
166.5665927029
 30
0.0
 11
316.3902613968
 21
222.5665927029
 31
0.0
  0
LINE
  5
C6
330
1F
100
AcDbEntity
  8
SLD-0
  6
Continuous
 62
   179
100
AcDbLine
 10
328.4215423968
 20
217.5665927029
 30
0.0
 11
360.3589813968
 21
217.5665927029
 31
0.0
  0
LINE
  5
C7
330
1F
100
AcDbEntity
  8
SLD-0
  6
Continuous
 62
   179
100
AcDbLine
 10
360.3589813968
 20
171.5665927029
 30
0.0
 11
328.4215423968
 21
171.5665927029
 31
0.0
  0
LINE
  5
C8
330
1F
100
AcDbEntity
  8
SLD-0
  6
Continuous
 62
   179
100
AcDbLine
 10
192.3348713968
 20
222.5665927029
 30
0.0
 11
192.3348713968
 21
166.5665927029
 31
0.0
  0
LINE
  5
C9
330
1F
100
AcDbEntity
  8
SLD-0
  6
Continuous
 62
   179
100
AcDbLine
 10
152.3348713968
 20
166.5665927029
 30
0.0
 11
152.3348713968
 21
222.5665927029
 31
0.0
  0
LINE
  5
CA
330
1F
100
AcDbEntity
  8
SLD-0
  6
Continuous
 62
   179
100
AcDbLine
 10
131.8348715503
 20
197.9043147029
 30
0.0
 11
131.8348715503
 21
197.0160827029
 31
0.0
  0
LINE
  5
CB
330
1F
100
AcDbEntity
  8
SLD-0
  6
Continuous
 62
   179
100
AcDbLine
 10
132.8348713968
 20
197.0160827029
 30
0.0
 11
132.8348713968
 21
197.9043147029
 31
0.0
  0
LINE
  5
CC
330
1F
100
AcDbEntity
  8
SLD-0
  6
Continuous
 62
   179
100
AcDbLine
 10
134.7632813968
 20
189.6823287029
 30
0.0
 11
136.3348713968
 21
187.8093807029
 31
0.0
  0
LINE
  5
CD
330
1F
100
AcDbEntity
  8
SLD-0
  6
Continuous
 62
   179
100
AcDbLine
 10
136.3348713968
 20
187.8093807029
 30
0.0
 11
135.56882741
 21
187.1665927141
 31
0.0
  0
LINE
  5
CE
330
1F
100
AcDbEntity
  8
SLD-0
  6
Continuous
 62
   179
100
AcDbLine
 10
135.56882741
 20
187.1665927141
 30
0.0
 11
133.99723641
 21
189.0395417141
 31
0.0
  0
LINE
  5
CF
330
1F
100
AcDbEntity
  8
SLD-0
  6
Continuous
 62
   179
100
AcDbLine
 10
132.8348713968
 20
192.1171027029
 30
0.0
 11
132.8348713968
 21
185.6665927029
 31
0.0
  0
LINE
  5
D0
330
1F
100
AcDbEntity
  8
SLD-0
  6
Continuous
 62
   179
100
AcDbLine
 10
132.8348713968
 20
185.6665927029
 30
0.0
 11
131.8348713968
 21
185.6665927029
 31
0.0
  0
LINE
  5
D1
330
1F
100
AcDbEntity
  8
SLD-0
  6
Continuous
 62
   179
100
AcDbLine
 10
131.8348713968
 20
185.6665927029
 30
0.0
 11
131.8348713968
 21
192.1171027029
 31
0.0
  0
LINE
  5
D2
330
1F
100
AcDbEntity
  8
SLD-0
  6
Continuous
 62
   179
100
AcDbLine
 10
95.0816103968
 20
222.5665927029
 30
0.0
 11
39.0816103968
 21
222.5665927029
 31
0.0
  0
LINE
  5
D3
330
1F
100
AcDbEntity
  8
SLD-0
  6
Continuous
 62
   179
100
AcDbLine
 10
39.0816103968
 20
222.5665927029
 30
0.0
 11
39.0816103968
 21
166.5665927029
 31
0.0
  0
LINE
  5
D4
330
1F
100
AcDbEntity
  8
SLD-0
  6
Continuous
 62
   179
100
AcDbLine
 10
39.0816103968
 20
166.5665927029
 30
0.0
 11
95.0816103968
 21
166.5665927029
 31
0.0
  0
LINE
  5
D5
330
1F
100
AcDbEntity
  8
SLD-0
  6
Continuous
 62
   179
100
AcDbLine
 10
95.0816103968
 20
166.5665927029
 30
0.0
 11
95.0816103968
 21
222.5665927029
 31
0.0
  0
LINE
  5
D6
330
1F
100
AcDbEntity
  8
SLD-0
  6
Continuous
 62
   179
100
AcDbLine
 10
85.0816103136
 20
209.1501846409
 30
0.0
 11
85.0816103136
 21
179.9830006409
 31
0.0
  0
LINE
  5
D7
330
1F
100
AcDbEntity
  8
SLD-0
  6
Continuous
 62
   179
100
AcDbLine
 10
85.0816103968
 20
180.5665927029
 30
0.0
 11
75.5816103968
 21
180.5665927029
 31
0.0
  0
LINE
  5
D8
330
1F
100
AcDbEntity
  8
SLD-0
  6
Continuous
 62
   179
100
AcDbLine
 10
58.5816103968
 20
166.5665927029
 30
0.0
 11
58.5816103968
 21
222.5665927029
 31
0.0
  0
LINE
  5
D9
330
1F
100
AcDbEntity
  8
SLD-0
  6
Continuous
 62
   179
100
AcDbLine
 10
75.5816103968
 20
222.5665927029
 30
0.0
 11
75.5816103968
 21
166.5665927029
 31
0.0
  0
LINE
  5
DA
330
1F
100
AcDbEntity
  8
SLD-0
  6
Continuous
 62
   179
100
AcDbLine
 10
58.5816103968
 20
180.5665927029
 30
0.0
 11
49.0816103968
 21
180.5665927029
 31
0.0
  0
LINE
  5
DB
330
1F
100
AcDbEntity
  8
SLD-0
  6
Continuous
 62
   179
100
AcDbLine
 10
49.0816104799
 20
179.9830006409
 30
0.0
 11
49.0816104799
 21
209.1501846409
 31
0.0
  0
LINE
  5
DC
330
1F
100
AcDbEntity
  8
SLD-0
  6
Continuous
 62
   179
100
AcDbLine
 10
49.0816103968
 20
208.5665927029
 30
0.0
 11
58.5816103968
 21
208.5665927029
 31
0.0
  0
LINE
  5
DD
330
1F
100
AcDbEntity
  8
SLD-0
  6
Continuous
 62
   179
100
AcDbLine
 10
58.5816103968
 20
197.0665927029
 30
0.0
 11
75.5816103968
 21
197.0665927029
 31
0.0
  0
LINE
  5
DE
330
1F
100
AcDbEntity
  8
SLD-0
  6
Continuous
 62
   179
100
AcDbLine
 10
75.5816103968
 20
192.0665927029
 30
0.0
 11
58.5816103968
 21
192.0665927029
 31
0.0
  0
LINE
  5
DF
330
1F
100
AcDbEntity
  8
SLD-0
  6
Continuous
 62
   179
100
AcDbLine
 10
49.0816103968
 20
188.0665927029
 30
0.0
 11
48.3816103968
 21
188.0665927029
 31
0.0
  0
LINE
  5
E0
330
1F
100
AcDbEntity
  8
SLD-0
  6
Continuous
 62
   179
100
AcDbLine
 10
48.3816103968
 20
188.0665927029
 30
0.0
 11
48.3816103968
 21
201.0665927029
 31
0.0
  0
LINE
  5
E1
330
1F
100
AcDbEntity
  8
SLD-0
  6
Continuous
 62
   179
100
AcDbLine
 10
48.3816103968
 20
201.0665927029
 30
0.0
 11
49.0816103968
 21
201.0665927029
 31
0.0
  0
LINE
  5
E2
330
1F
100
AcDbEntity
  8
SLD-0
  6
Continuous
 62
   179
100
AcDbLine
 10
48.3816103968
 20
201.0665927029
 30
0.0
 11
48.0816103968
 21
200.7665927029
 31
0.0
  0
LINE
  5
E3
330
1F
100
AcDbEntity
  8
SLD-0
  6
Continuous
 62
   179
100
AcDbLine
 10
48.0816103968
 20
200.7665927029
 30
0.0
 11
48.0816103968
 21
188.3665927029
 31
0.0
  0
LINE
  5
E4
330
1F
100
AcDbEntity
  8
SLD-0
  6
Continuous
 62
   179
100
AcDbLine
 10
48.0816103968
 20
188.3665927029
 30
0.0
 11
48.3816103968
 21
188.0665927029
 31
0.0
  0
LINE
  5
E5
330
1F
100
AcDbEntity
  8
SLD-0
  6
Continuous
 62
   179
100
AcDbLine
 10
46.5816103968
 20
186.0665927029
 30
0.0
 11
46.5816103968
 21
192.0665927029
 31
0.0
  0
LINE
  5
E6
330
1F
100
AcDbEntity
  8
SLD-0
  6
Continuous
 62
   179
100
AcDbLine
 10
47.5816103968
 20
192.0665927029
 30
0.0
 11
47.5816103968
 21
186.0665927029
 31
0.0
  0
LINE
  5
E7
330
1F
100
AcDbEntity
  8
SLD-0
  6
Continuous
 62
   179
100
AcDbLine
 10
48.0816103968
 20
192.0665927029
 30
0.0
 11
45.5816103968
 21
192.0665927029
 31
0.0
  0
LINE
  5
E8
330
1F
100
AcDbEntity
  8
SLD-0
  6
Continuous
 62
   179
100
AcDbLine
 10
45.5816103968
 20
192.0665927029
 30
0.0
 11
45.0816103968
 21
192.5665927029
 31
0.0
  0
LINE
  5
E9
330
1F
100
AcDbEntity
  8
SLD-0
  6
Continuous
 62
   179
100
AcDbLine
 10
45.0816103968
 20
192.5665927029
 30
0.0
 11
45.0816103968
 21
196.5665927029
 31
0.0
  0
LINE
  5
EA
330
1F
100
AcDbEntity
  8
SLD-0
  6
Continuous
 62
   179
100
AcDbLine
 10
45.0816103968
 20
196.5665927029
 30
0.0
 11
45.5816103968
 21
197.0665927029
 31
0.0
  0
LINE
  5
EB
330
1F
100
AcDbEntity
  8
SLD-0
  6
Continuous
 62
   179
100
AcDbLine
 10
45.5816103968
 20
197.0665927029
 30
0.0
 11
45.5816103968
 21
192.0665927029
 31
0.0
  0
LINE
  5
EC
330
1F
100
AcDbEntity
  8
SLD-0
  6
Continuous
 62
   179
100
AcDbLine
 10
45.5816103968
 20
197.0665927029
 30
0.0
 11
48.0816103968
 21
197.0665927029
 31
0.0
  0
LINE
  5
ED
330
1F
100
AcDbEntity
  8
SLD-0
  6
Continuous
 62
   179
100
AcDbLine
 10
47.5816103968
 20
197.0665927029
 30
0.0
 11
47.5816103968
 21
203.4665927029
 31
0.0
  0
LINE
  5
EE
330
1F
100
AcDbEntity
  8
SLD-0
  6
Continuous
 62
   179
100
AcDbLine
 10
47.5816103968
 20
203.4665927029
 30
0.0
 11
46.5816103968
 21
203.4665927029
 31
0.0
  0
LINE
  5
EF
330
1F
100
AcDbEntity
  8
SLD-0
  6
Continuous
 62
   179
100
AcDbLine
 10
46.5816103968
 20
203.4665927029
 30
0.0
 11
46.5816103968
 21
197.0665927029
 31
0.0
  0
LINE
  5
F0
330
1F
100
AcDbEntity
  8
SLD-0
  6
Continuous
 62
   179
100
AcDbLine
 10
85.0816103968
 20
188.0665927029
 30
0.0
 11
85.7816103968
 21
188.0665927029
 31
0.0
  0
LINE
  5
F1
330
1F
100
AcDbEntity
  8
SLD-0
  6
Continuous
 62
   179
100
AcDbLine
 10
85.7816103968
 20
188.0665927029
 30
0.0
 11
86.0816103968
 21
188.3665927029
 31
0.0
  0
LINE
  5
F2
330
1F
100
AcDbEntity
  8
SLD-0
  6
Continuous
 62
   179
100
AcDbLine
 10
86.0816103968
 20
188.3665927029
 30
0.0
 11
86.0816103968
 21
200.7665927029
 31
0.0
  0
LINE
  5
F3
330
1F
100
AcDbEntity
  8
SLD-0
  6
Continuous
 62
   179
100
AcDbLine
 10
86.0816103968
 20
200.7665927029
 30
0.0
 11
85.7816103968
 21
201.0665927029
 31
0.0
  0
LINE
  5
F4
330
1F
100
AcDbEntity
  8
SLD-0
  6
Continuous
 62
   179
100
AcDbLine
 10
85.7816103968
 20
201.0665927029
 30
0.0
 11
85.7816103968
 21
188.0665927029
 31
0.0
  0
LINE
  5
F5
330
1F
100
AcDbEntity
  8
SLD-0
  6
Continuous
 62
   179
100
AcDbLine
 10
86.5816103968
 20
185.6665927029
 30
0.0
 11
87.5816103968
 21
185.6665927029
 31
0.0
  0
LINE
  5
F6
330
1F
100
AcDbEntity
  8
SLD-0
  6
Continuous
 62
   179
100
AcDbLine
 10
87.5816103968
 20
185.6665927029
 30
0.0
 11
87.5816103968
 21
192.0665927029
 31
0.0
  0
LINE
  5
F7
330
1F
100
AcDbEntity
  8
SLD-0
  6
Continuous
 62
   179
100
AcDbLine
 10
86.5816103968
 20
192.0665927029
 30
0.0
 11
86.5816103968
 21
185.6665927029
 31
0.0
  0
LINE
  5
F8
330
1F
100
AcDbEntity
  8
SLD-0
  6
Continuous
 62
   179
100
AcDbLine
 10
86.0816103968
 20
192.0665927029
 30
0.0
 11
88.5816103968
 21
192.0665927029
 31
0.0
  0
LINE
  5
F9
330
1F
100
AcDbEntity
  8
SLD-0
  6
Continuous
 62
   179
100
AcDbLine
 10
88.5816103968
 20
192.0665927029
 30
0.0
 11
88.5816103968
 21
197.0665927029
 31
0.0
  0
LINE
  5
FA
330
1F
100
AcDbEntity
  8
SLD-0
  6
Continuous
 62
   179
100
AcDbLine
 10
88.5816103968
 20
197.0665927029
 30
0.0
 11
89.0816103968
 21
196.5665927029
 31
0.0
  0
LINE
  5
FB
330
1F
100
AcDbEntity
  8
SLD-0
  6
Continuous
 62
   179
100
AcDbLine
 10
89.0816103968
 20
196.5665927029
 30
0.0
 11
89.0816103968
 21
192.5665927029
 31
0.0
  0
LINE
  5
FC
330
1F
100
AcDbEntity
  8
SLD-0
  6
Continuous
 62
   179
100
AcDbLine
 10
89.0816103968
 20
192.5665927029
 30
0.0
 11
88.5816103968
 21
192.0665927029
 31
0.0
  0
LINE
  5
FD
330
1F
100
AcDbEntity
  8
SLD-0
  6
Continuous
 62
   179
100
AcDbLine
 10
88.5816103968
 20
197.0665927029
 30
0.0
 11
86.0816103968
 21
197.0665927029
 31
0.0
  0
LINE
  5
FE
330
1F
100
AcDbEntity
  8
SLD-0
  6
Continuous
 62
   179
100
AcDbLine
 10
86.5816103968
 20
197.0665927029
 30
0.0
 11
86.5816103968
 21
203.0665927029
 31
0.0
  0
LINE
  5
FF
330
1F
100
AcDbEntity
  8
SLD-0
  6
Continuous
 62
   179
100
AcDbLine
 10
87.5816103968
 20
203.0665927029
 30
0.0
 11
87.5816103968
 21
197.0665927029
 31
0.0
  0
LINE
  5
100
330
1F
100
AcDbEntity
  8
SLD-0
  6
Continuous
 62
   179
100
AcDbLine
 10
85.7816103968
 20
201.0665927029
 30
0.0
 11
85.0816103968
 21
201.0665927029
 31
0.0
  0
LINE
  5
101
330
1F
100
AcDbEntity
  8
SLD-0
  6
Continuous
 62
   179
100
AcDbLine
 10
85.0816103968
 20
208.5665927029
 30
0.0
 11
75.5816103968
 21
208.5665927029
 31
0.0
  0
LINE
  5
102
330
1F
100
AcDbEntity
  8
SLD-0
  6
CENTER
 62
   179
100
AcDbLine
 10
237.3348713968
 20
57.6110287029
 30
0.0
 11
237.3348713968
 21
70.8598507029
 31
0.0
  0
LINE
  5
103
330
1F
100
AcDbEntity
  8
SLD-0
  6
CENTER
 62
   179
100
AcDbLine
 10
237.3348713968
 20
106.5019057029
 30
0.0
 11
237.3348713968
 21
119.0376207029
 31
0.0
  0
LINE
  5
104
330
1F
100
AcDbEntity
  8
SLD-0
  6
CENTER
 62
   179
100
AcDbLine
 10
243.9262193968
 20
111.6808787029
 30
0.0
 11
172.2610333968
 21
111.6808787029
 31
0.0
  0
LINE
  5
105
330
1F
100
AcDbEntity
  8
SLD-0
  6
CENTER
 62
   179
100
AcDbLine
 10
177.3348713968
 20
106.7272687029
 30
0.0
 11
177.3348713968
 21
119.3575507029
 31
0.0
  0
LINE
  5
106
330
1F
100
AcDbEntity
  8
SLD-0
  6
CENTER
 62
   179
100
AcDbLine
 10
162.7958193968
 20
108.6808787029
 30
0.0
 11
152.4291573968
 21
108.6808787029
 31
0.0
  0
LINE
  5
107
330
1F
100
AcDbEntity
  8
SLD-0
  6
CENTER
 62
   179
100
AcDbLine
 10
157.3348713968
 20
114.0787027029
 30
0.0
 11
157.3348713968
 21
103.1214727029
 31
0.0
  0
LINE
  5
108
330
1F
100
AcDbEntity
  8
SLD-0
  6
CENTER
 62
   179
100
AcDbLine
 10
132.3348713968
 20
113.8249057029
 30
0.0
 11
132.3348713968
 21
63.8269607029
 31
0.0
  0
LINE
  5
109
330
1F
100
AcDbEntity
  8
SLD-0
  6
CENTER
 62
   179
100
AcDbLine
 10
152.4291573968
 20
68.6808787029
 30
0.0
 11
162.7958193968
 21
68.6808787029
 31
0.0
  0
LINE
  5
10A
330
1F
100
AcDbEntity
  8
SLD-0
  6
CENTER
 62
   179
100
AcDbLine
 10
157.3348713968
 20
63.2098067029
 30
0.0
 11
157.3348713968
 21
74.2402837029
 31
0.0
  0
LINE
  5
10B
330
1F
100
AcDbEntity
  8
SLD-0
  6
CENTER
 62
   179
100
AcDbLine
 10
177.3348713968
 20
70.6344887029
 30
0.0
 11
177.3348713968
 21
58.0909237029
 31
0.0
  0
LINE
  5
10C
330
1F
100
AcDbEntity
  8
SLD-0
  6
CENTER
 62
   179
100
AcDbLine
 10
172.2610333968
 20
65.6808787029
 30
0.0
 11
243.9262193968
 21
65.6808787029
 31
0.0
  0
LINE
  5
10D
330
1F
100
AcDbEntity
  8
SLD-0
  6
CENTER
 62
   179
100
AcDbLine
 10
296.9434433968
 20
88.6808787029
 30
0.0
 11
111.3005523968
 21
88.6808787029
 31
0.0
  0
LINE
  5
10E
330
1F
100
AcDbEntity
  8
SLD-0
  6
CENTER
 62
   179
100
AcDbLine
 10
187.3348713968
 20
161.8734497029
 30
0.0
 11
187.3348713968
 21
175.8928787029
 31
0.0
  0
LINE
  5
10F
330
1F
100
AcDbEntity
  8
SLD-0
  6
CENTER
 62
   179
100
AcDbLine
 10
180.7291573968
 20
171.5665927029
 30
0.0
 11
253.7268713968
 21
171.5665927029
 31
0.0
  0
LINE
  5
110
330
1F
100
AcDbEntity
  8
SLD-0
  6
CENTER
 62
   179
100
AcDbLine
 10
247.3348713968
 20
175.8928787029
 30
0.0
 11
247.3348713968
 21
161.6317357029
 31
0.0
  0
LINE
  5
111
330
1F
100
AcDbEntity
  8
SLD-0
  6
CENTER
 62
   179
100
AcDbLine
 10
277.3348713968
 20
194.7048907029
 30
0.0
 11
277.3348713968
 21
208.7892707029
 31
0.0
  0
LINE
  5
112
330
1F
100
AcDbEntity
  8
SLD-0
  6
CENTER
 62
   179
100
AcDbLine
 10
284.6030833968
 20
201.8135257029
 30
0.0
 11
270.0116653968
 21
201.8135257029
 31
0.0
  0
LINE
  5
113
330
1F
100
AcDbEntity
  8
SLD-0
  6
CENTER
 62
   179
100
AcDbLine
 10
290.9328953968
 20
194.5665927029
 30
0.0
 11
112.7845143968
 21
194.5665927029
 31
0.0
  0
LINE
  5
114
330
1F
100
AcDbEntity
  8
SLD-0
  6
CENTER
 62
   179
100
AcDbLine
 10
132.3348713968
 20
205.5414347029
 30
0.0
 11
132.3348713968
 21
183.4559317029
 31
0.0
  0
LINE
  5
115
330
1F
100
AcDbEntity
  8
SLD-0
  6
CENTER
 62
   179
100
AcDbLine
 10
180.7291573968
 20
217.5665927029
 30
0.0
 11
253.7268713968
 21
217.5665927029
 31
0.0
  0
LINE
  5
116
330
1F
100
AcDbEntity
  8
SLD-0
  6
CENTER
 62
   179
100
AcDbLine
 10
247.3348713968
 20
213.2403067029
 30
0.0
 11
247.3348713968
 21
227.5014497029
 31
0.0
  0
LINE
  5
117
330
1F
100
AcDbEntity
  8
SLD-0
  6
CENTER
 62
   179
100
AcDbLine
 10
187.3348713968
 20
227.2597357029
 30
0.0
 11
187.3348713968
 21
213.2403067029
 31
0.0
  0
LINE
  5
118
330
1F
100
AcDbEntity
  8
SLD-0
  6
CENTER
 62
   179
100
AcDbLine
 10
98.6109153968
 20
194.5665927029
 30
0.0
 11
34.6573633968
 21
194.5665927029
 31
0.0
  0
LINE
  5
119
330
1F
100
AcDbEntity
  8
SLD-0
  6
CENTER
 62
   179
100
AcDbLine
 10
67.0816103968
 20
160.3048787029
 30
0.0
 11
67.0816103968
 21
229.4351637029
 31
0.0
  0
LINE
  5
11A
330
1F
100
AcDbEntity
  8
SLD-0
  6
CENTER
 62
   179
100
AcDbLine
 10
311.3315803968
 20
203.4246397029
 30
0.0
 11
344.3902613968
 21
194.5665927029
 31
0.0
  0
LINE
  5
11B
330
1F
100
AcDbEntity
  8
SLD-0
  6
CENTER
 62
   179
100
AcDbLine
 10
354.8404373968
 20
205.0167687029
 30
0.0
 11
362.2829023968
 21
212.4592337029
 31
0.0
  0
LINE
  5
11C
330
1F
100
AcDbEntity
  8
SLD-0
  6
CENTER
 62
   179
100
AcDbLine
 10
355.1787773968
 20
212.0623477029
 30
0.0
 11
362.1074133968
 21
205.1337127029
 31
0.0
  0
LINE
  5
11D
330
1F
100
AcDbEntity
  8
SLD-0
  6
CENTER
 62
   179
100
AcDbLine
 10
375.7772063968
 20
194.5665927029
 30
0.0
 11
310.6997093968
 21
194.5665927029
 31
0.0
  0
LINE
  5
11E
330
1F
100
AcDbEntity
  8
SLD-0
  6
CENTER
 62
   179
100
AcDbLine
 10
326.5702593968
 20
184.1023237029
 30
0.0
 11
333.4306323968
 21
177.2419507029
 31
0.0
  0
LINE
  5
11F
330
1F
100
AcDbEntity
  8
SLD-0
  6
CENTER
 62
   179
100
AcDbLine
 10
333.6901353968
 20
183.8664667029
 30
0.0
 11
326.5417623968
 21
176.7180937029
 31
0.0
  0
LINE
  5
120
330
1F
100
AcDbEntity
  8
SLD-0
  6
CENTER
 62
   179
100
AcDbLine
 10
344.3902613968
 20
160.5740217029
 30
0.0
 11
344.3902613968
 21
230.5467067029
 31
0.0
  0
LINE
  5
121
330
1F
100
AcDbEntity
  8
SLD-0
  6
Continuous
 62
   179
100
AcDbLine
 10
402.5
 20
285.5
 30
0.0
 11
402.5
 21
11.5
 31
0.0
  0
LINE
  5
122
330
1F
100
AcDbEntity
  8
SLD-0
  6
Continuous
 62
   179
100
AcDbLine
 10
17.5
 20
11.5
 30
0.0
 11
402.5
 21
11.5
 31
0.0
  0
LINE
  5
123
330
1F
100
AcDbEntity
  8
SLD-0
  6
Continuous
 62
   179
100
AcDbLine
 10
17.5
 20
285.5
 30
0.0
 11
17.5
 21
11.5
 31
0.0
  0
LINE
  5
124
330
1F
100
AcDbEntity
  8
SLD-0
  6
Continuous
 62
   179
100
AcDbLine
 10
17.5
 20
285.5
 30
0.0
 11
402.5
 21
285.5
 31
0.0
  0
LINE
  5
125
330
1F
100
AcDbEntity
  8
SLD-0
  6
Continuous
 62
   179
100
AcDbLine
 10
334.0
 20
50.0
 30
0.0
 11
334.0
 21
11.5
 31
0.0
  0
LINE
  5
126
330
1F
100
AcDbEntity
  8
SLD-0
  6
Continuous
 62
   179
100
AcDbLine
 10
334.0
 20
24.0
 30
0.0
 11
402.5
 21
24.0
 31
0.0
  0
LINE
  5
127
330
1F
100
AcDbEntity
  8
SLD-0
  6
Continuous
 62
   179
100
AcDbLine
 10
334.0
 20
36.5
 30
0.0
 11
402.5
 21
36.5
 31
0.0
  0
LINE
  5
128
330
1F
100
AcDbEntity
  8
SLD-0
  6
Continuous
 62
   179
100
AcDbLine
 10
334.0
 20
50.0
 30
0.0
 11
402.5
 21
50.0
 31
0.0
  0
LINE
  5
129
330
1F
100
AcDbEntity
  8
SLD-0
  6
Continuous
 62
   179
100
AcDbLine
 10
17.3
 20
11.3
 30
0.0
 11
402.7
 21
11.3
 31
0.0
  0
LINE
  5
12A
330
1F
100
AcDbEntity
  8
SLD-0
  6
Continuous
 62
   179
100
AcDbLine
 10
17.3
 20
285.7
 30
0.0
 11
17.3
 21
11.3
 31
0.0
  0
LINE
  5
12B
330
1F
100
AcDbEntity
  8
SLD-0
  6
Continuous
 62
   179
100
AcDbLine
 10
17.3
 20
285.7
 30
0.0
 11
402.7
 21
285.7
 31
0.0
  0
LINE
  5
12C
330
1F
100
AcDbEntity
  8
SLD-0
  6
Continuous
 62
   179
100
AcDbLine
 10
402.7
 20
285.7
 30
0.0
 11
402.7
 21
11.3
 31
0.0
  0
LINE
  5
12D
330
1F
100
AcDbEntity
  8
SLD-0
  6
Continuous
 62
   179
100
AcDbLine
 10
277.3348713968
 20
206.0635257029
 30
0.0
 11
276.9770973968
 21
206.0473537029
 31
0.0
  0
LINE
  5
12E
330
1F
100
AcDbEntity
  8
SLD-0
  6
Continuous
 62
   179
100
AcDbLine
 10
276.9770973968
 20
206.0473537029
 30
0.0
 11
276.6220463968
 21
205.9989587029
 31
0.0
  0
LINE
  5
12F
330
1F
100
AcDbEntity
  8
SLD-0
  6
Continuous
 62
   179
100
AcDbLine
 10
276.6220463968
 20
205.9989587029
 30
0.0
 11
276.2724193968
 21
205.9187107029
 31
0.0
  0
LINE
  5
130
330
1F
100
AcDbEntity
  8
SLD-0
  6
Continuous
 62
   179
100
AcDbLine
 10
276.2724193968
 20
205.9187107029
 30
0.0
 11
275.9308793968
 21
205.8072197029
 31
0.0
  0
LINE
  5
131
330
1F
100
AcDbEntity
  8
SLD-0
  6
Continuous
 62
   179
100
AcDbLine
 10
275.9308793968
 20
205.8072197029
 30
0.0
 11
275.6000233968
 21
205.6653337029
 31
0.0
  0
LINE
  5
132
330
1F
100
AcDbEntity
  8
SLD-0
  6
Continuous
 62
   179
100
AcDbLine
 10
275.6000233968
 20
205.6653337029
 30
0.0
 11
275.2823713968
 21
205.4941337029
 31
0.0
  0
LINE
  5
133
330
1F
100
AcDbEntity
  8
SLD-0
  6
Continuous
 62
   179
100
AcDbLine
 10
275.2823713968
 20
205.4941337029
 30
0.0
 11
274.9803403968
 21
205.2949217029
 31
0.0
  0
LINE
  5
134
330
1F
100
AcDbEntity
  8
SLD-0
  6
Continuous
 62
   179
100
AcDbLine
 10
274.9803403968
 20
205.2949217029
 30
0.0
 11
274.6962283968
 21
205.0692147029
 31
0.0
  0
LINE
  5
135
330
1F
100
AcDbEntity
  8
SLD-0
  6
Continuous
 62
   179
100
AcDbLine
 10
274.6962283968
 20
205.0692147029
 30
0.0
 11
274.4321983968
 21
204.8187297029
 31
0.0
  0
LINE
  5
136
330
1F
100
AcDbEntity
  8
SLD-0
  6
Continuous
 62
   179
100
AcDbLine
 10
274.4321983968
 20
204.8187297029
 30
0.0
 11
274.1902593968
 21
204.5453737029
 31
0.0
  0
LINE
  5
137
330
1F
100
AcDbEntity
  8
SLD-0
  6
Continuous
 62
   179
100
AcDbLine
 10
274.1902593968
 20
204.5453737029
 30
0.0
 11
273.9722523968
 21
204.2512257029
 31
0.0
  0
LINE
  5
138
330
1F
100
AcDbEntity
  8
SLD-0
  6
Continuous
 62
   179
100
AcDbLine
 10
273.9722523968
 20
204.2512257029
 30
0.0
 11
273.7798373968
 21
203.9385257029
 31
0.0
  0
LINE
  5
139
330
1F
100
AcDbEntity
  8
SLD-0
  6
Continuous
 62
   179
100
AcDbLine
 10
273.7798373968
 20
203.9385257029
 30
0.0
 11
273.6144783968
 21
203.6096537029
 31
0.0
  0
LINE
  5
13A
330
1F
100
AcDbEntity
  8
SLD-0
  6
Continuous
 62
   179
100
AcDbLine
 10
273.6144783968
 20
203.6096537029
 30
0.0
 11
273.4774333968
 21
203.2671117029
 31
0.0
  0
LINE
  5
13B
330
1F
100
AcDbEntity
  8
SLD-0
  6
Continuous
 62
   179
100
AcDbLine
 10
273.4774333968
 20
203.2671117029
 30
0.0
 11
273.3697463968
 21
202.9135067029
 31
0.0
  0
LINE
  5
13C
330
1F
100
AcDbEntity
  8
SLD-0
  6
Continuous
 62
   179
100
AcDbLine
 10
273.3697463968
 20
202.9135067029
 30
0.0
 11
273.2922353968
 21
202.5515307029
 31
0.0
  0
LINE
  5
13D
330
1F
100
AcDbEntity
  8
SLD-0
  6
Continuous
 62
   179
100
AcDbLine
 10
273.2922353968
 20
202.5515307029
 30
0.0
 11
273.2454923968
 21
202.1839377029
 31
0.0
  0
LINE
  5
13E
330
1F
100
AcDbEntity
  8
SLD-0
  6
Continuous
 62
   179
100
AcDbLine
 10
273.2454923968
 20
202.1839377029
 30
0.0
 11
273.2298713968
 21
201.8135257029
 31
0.0
  0
LINE
  5
13F
330
1F
100
AcDbEntity
  8
SLD-0
  6
Continuous
 62
   179
100
AcDbLine
 10
273.2298713968
 20
201.8135257029
 30
0.0
 11
273.2454923968
 21
201.4431137029
 31
0.0
  0
LINE
  5
140
330
1F
100
AcDbEntity
  8
SLD-0
  6
Continuous
 62
   179
100
AcDbLine
 10
273.2454923968
 20
201.4431137029
 30
0.0
 11
273.2922353968
 21
201.0755217029
 31
0.0
  0
LINE
  5
141
330
1F
100
AcDbEntity
  8
SLD-0
  6
Continuous
 62
   179
100
AcDbLine
 10
273.2922353968
 20
201.0755217029
 30
0.0
 11
273.3697463968
 21
200.7135447029
 31
0.0
  0
LINE
  5
142
330
1F
100
AcDbEntity
  8
SLD-0
  6
Continuous
 62
   179
100
AcDbLine
 10
273.3697463968
 20
200.7135447029
 30
0.0
 11
273.4774333968
 21
200.3599407029
 31
0.0
  0
LINE
  5
143
330
1F
100
AcDbEntity
  8
SLD-0
  6
Continuous
 62
   179
100
AcDbLine
 10
273.4774333968
 20
200.3599407029
 30
0.0
 11
273.6144783968
 21
200.0173987029
 31
0.0
  0
LINE
  5
144
330
1F
100
AcDbEntity
  8
SLD-0
  6
Continuous
 62
   179
100
AcDbLine
 10
273.6144783968
 20
200.0173987029
 30
0.0
 11
273.7798373968
 21
199.6885257029
 31
0.0
  0
LINE
  5
145
330
1F
100
AcDbEntity
  8
SLD-0
  6
Continuous
 62
   179
100
AcDbLine
 10
273.7798373968
 20
199.6885257029
 30
0.0
 11
273.9722523968
 21
199.3758257029
 31
0.0
  0
LINE
  5
146
330
1F
100
AcDbEntity
  8
SLD-0
  6
Continuous
 62
   179
100
AcDbLine
 10
273.9722523968
 20
199.3758257029
 30
0.0
 11
274.1902593968
 21
199.0816787029
 31
0.0
  0
LINE
  5
147
330
1F
100
AcDbEntity
  8
SLD-0
  6
Continuous
 62
   179
100
AcDbLine
 10
274.1902593968
 20
199.0816787029
 30
0.0
 11
274.4321983968
 21
198.8083217029
 31
0.0
  0
LINE
  5
148
330
1F
100
AcDbEntity
  8
SLD-0
  6
Continuous
 62
   179
100
AcDbLine
 10
274.4321983968
 20
198.8083217029
 30
0.0
 11
274.6962283968
 21
198.5578367029
 31
0.0
  0
LINE
  5
149
330
1F
100
AcDbEntity
  8
SLD-0
  6
Continuous
 62
   179
100
AcDbLine
 10
274.6962283968
 20
198.5578367029
 30
0.0
 11
274.9803403968
 21
198.3321297029
 31
0.0
  0
LINE
  5
14A
330
1F
100
AcDbEntity
  8
SLD-0
  6
Continuous
 62
   179
100
AcDbLine
 10
274.9803403968
 20
198.3321297029
 30
0.0
 11
275.2823713968
 21
198.1329177029
 31
0.0
  0
LINE
  5
14B
330
1F
100
AcDbEntity
  8
SLD-0
  6
Continuous
 62
   179
100
AcDbLine
 10
275.2823713968
 20
198.1329177029
 30
0.0
 11
275.6000233968
 21
197.9617177029
 31
0.0
  0
LINE
  5
14C
330
1F
100
AcDbEntity
  8
SLD-0
  6
Continuous
 62
   179
100
AcDbLine
 10
275.6000233968
 20
197.9617177029
 30
0.0
 11
275.9308793968
 21
197.8198327029
 31
0.0
  0
LINE
  5
14D
330
1F
100
AcDbEntity
  8
SLD-0
  6
Continuous
 62
   179
100
AcDbLine
 10
275.9308793968
 20
197.8198327029
 30
0.0
 11
276.2724193968
 21
197.7083417029
 31
0.0
  0
LINE
  5
14E
330
1F
100
AcDbEntity
  8
SLD-0
  6
Continuous
 62
   179
100
AcDbLine
 10
276.2724193968
 20
197.7083417029
 30
0.0
 11
276.6220463968
 21
197.6280927029
 31
0.0
  0
LINE
  5
14F
330
1F
100
AcDbEntity
  8
SLD-0
  6
Continuous
 62
   179
100
AcDbLine
 10
276.6220463968
 20
197.6280927029
 30
0.0
 11
276.9770973968
 21
197.5796987029
 31
0.0
  0
LINE
  5
150
330
1F
100
AcDbEntity
  8
SLD-0
  6
Continuous
 62
   179
100
AcDbLine
 10
276.9770973968
 20
197.5796987029
 30
0.0
 11
277.3348713968
 21
197.5635257029
 31
0.0
  0
LINE
  5
151
330
1F
100
AcDbEntity
  8
SLD-0
  6
Continuous
 62
   179
100
AcDbLine
 10
277.3348713968
 20
197.5635257029
 30
0.0
 11
277.6926463968
 21
197.5796987029
 31
0.0
  0
LINE
  5
152
330
1F
100
AcDbEntity
  8
SLD-0
  6
Continuous
 62
   179
100
AcDbLine
 10
277.6926463968
 20
197.5796987029
 30
0.0
 11
278.0476973968
 21
197.6280927029
 31
0.0
  0
LINE
  5
153
330
1F
100
AcDbEntity
  8
SLD-0
  6
Continuous
 62
   179
100
AcDbLine
 10
278.0476973968
 20
197.6280927029
 30
0.0
 11
278.3973233968
 21
197.7083417029
 31
0.0
  0
LINE
  5
154
330
1F
100
AcDbEntity
  8
SLD-0
  6
Continuous
 62
   179
100
AcDbLine
 10
278.3973233968
 20
197.7083417029
 30
0.0
 11
278.7388643968
 21
197.8198327029
 31
0.0
  0
LINE
  5
155
330
1F
100
AcDbEntity
  8
SLD-0
  6
Continuous
 62
   179
100
AcDbLine
 10
278.7388643968
 20
197.8198327029
 30
0.0
 11
279.0697193968
 21
197.9617177029
 31
0.0
  0
LINE
  5
156
330
1F
100
AcDbEntity
  8
SLD-0
  6
Continuous
 62
   179
100
AcDbLine
 10
279.0697193968
 20
197.9617177029
 30
0.0
 11
279.3873713968
 21
198.1329177029
 31
0.0
  0
LINE
  5
157
330
1F
100
AcDbEntity
  8
SLD-0
  6
Continuous
 62
   179
100
AcDbLine
 10
279.3873713968
 20
198.1329177029
 30
0.0
 11
279.6894033968
 21
198.3321297029
 31
0.0
  0
LINE
  5
158
330
1F
100
AcDbEntity
  8
SLD-0
  6
Continuous
 62
   179
100
AcDbLine
 10
279.6894033968
 20
198.3321297029
 30
0.0
 11
279.9735143968
 21
198.5578367029
 31
0.0
  0
LINE
  5
159
330
1F
100
AcDbEntity
  8
SLD-0
  6
Continuous
 62
   179
100
AcDbLine
 10
279.9735143968
 20
198.5578367029
 30
0.0
 11
280.2375453968
 21
198.8083217029
 31
0.0
  0
LINE
  5
15A
330
1F
100
AcDbEntity
  8
SLD-0
  6
Continuous
 62
   179
100
AcDbLine
 10
280.2375453968
 20
198.8083217029
 30
0.0
 11
280.4794843968
 21
199.0816787029
 31
0.0
  0
LINE
  5
15B
330
1F
100
AcDbEntity
  8
SLD-0
  6
Continuous
 62
   179
100
AcDbLine
 10
280.4794843968
 20
199.0816787029
 30
0.0
 11
280.6974903968
 21
199.3758257029
 31
0.0
  0
LINE
  5
15C
330
1F
100
AcDbEntity
  8
SLD-0
  6
Continuous
 62
   179
100
AcDbLine
 10
280.6974903968
 20
199.3758257029
 30
0.0
 11
280.8899063968
 21
199.6885257029
 31
0.0
  0
LINE
  5
15D
330
1F
100
AcDbEntity
  8
SLD-0
  6
Continuous
 62
   179
100
AcDbLine
 10
280.8899063968
 20
199.6885257029
 30
0.0
 11
281.0552653968
 21
200.0173987029
 31
0.0
  0
LINE
  5
15E
330
1F
100
AcDbEntity
  8
SLD-0
  6
Continuous
 62
   179
100
AcDbLine
 10
281.0552653968
 20
200.0173987029
 30
0.0
 11
281.1923093968
 21
200.3599407029
 31
0.0
  0
LINE
  5
15F
330
1F
100
AcDbEntity
  8
SLD-0
  6
Continuous
 62
   179
100
AcDbLine
 10
281.1923093968
 20
200.3599407029
 30
0.0
 11
281.2999973968
 21
200.7135447029
 31
0.0
  0
LINE
  5
160
330
1F
100
AcDbEntity
  8
SLD-0
  6
Continuous
 62
   179
100
AcDbLine
 10
281.2999973968
 20
200.7135447029
 30
0.0
 11
281.3775073968
 21
201.0755217029
 31
0.0
  0
LINE
  5
161
330
1F
100
AcDbEntity
  8
SLD-0
  6
Continuous
 62
   179
100
AcDbLine
 10
281.3775073968
 20
201.0755217029
 30
0.0
 11
281.4242513968
 21
201.4431137029
 31
0.0
  0
LINE
  5
162
330
1F
100
AcDbEntity
  8
SLD-0
  6
Continuous
 62
   179
100
AcDbLine
 10
281.4242513968
 20
201.4431137029
 30
0.0
 11
281.4398713968
 21
201.8135257029
 31
0.0
  0
LINE
  5
163
330
1F
100
AcDbEntity
  8
SLD-0
  6
Continuous
 62
   179
100
AcDbLine
 10
281.4398713968
 20
201.8135257029
 30
0.0
 11
281.4242513968
 21
202.1839377029
 31
0.0
  0
LINE
  5
164
330
1F
100
AcDbEntity
  8
SLD-0
  6
Continuous
 62
   179
100
AcDbLine
 10
281.4242513968
 20
202.1839377029
 30
0.0
 11
281.3775073968
 21
202.5515307029
 31
0.0
  0
LINE
  5
165
330
1F
100
AcDbEntity
  8
SLD-0
  6
Continuous
 62
   179
100
AcDbLine
 10
281.3775073968
 20
202.5515307029
 30
0.0
 11
281.2999973968
 21
202.9135067029
 31
0.0
  0
LINE
  5
166
330
1F
100
AcDbEntity
  8
SLD-0
  6
Continuous
 62
   179
100
AcDbLine
 10
281.2999973968
 20
202.9135067029
 30
0.0
 11
281.1923093968
 21
203.2671117029
 31
0.0
  0
LINE
  5
167
330
1F
100
AcDbEntity
  8
SLD-0
  6
Continuous
 62
   179
100
AcDbLine
 10
281.1923093968
 20
203.2671117029
 30
0.0
 11
281.0552653968
 21
203.6096537029
 31
0.0
  0
LINE
  5
168
330
1F
100
AcDbEntity
  8
SLD-0
  6
Continuous
 62
   179
100
AcDbLine
 10
281.0552653968
 20
203.6096537029
 30
0.0
 11
280.8899063968
 21
203.9385257029
 31
0.0
  0
LINE
  5
169
330
1F
100
AcDbEntity
  8
SLD-0
  6
Continuous
 62
   179
100
AcDbLine
 10
280.8899063968
 20
203.9385257029
 30
0.0
 11
280.6974903968
 21
204.2512257029
 31
0.0
  0
LINE
  5
16A
330
1F
100
AcDbEntity
  8
SLD-0
  6
Continuous
 62
   179
100
AcDbLine
 10
280.6974903968
 20
204.2512257029
 30
0.0
 11
280.4794843968
 21
204.5453737029
 31
0.0
  0
LINE
  5
16B
330
1F
100
AcDbEntity
  8
SLD-0
  6
Continuous
 62
   179
100
AcDbLine
 10
280.4794843968
 20
204.5453737029
 30
0.0
 11
280.2375453968
 21
204.8187297029
 31
0.0
  0
LINE
  5
16C
330
1F
100
AcDbEntity
  8
SLD-0
  6
Continuous
 62
   179
100
AcDbLine
 10
280.2375453968
 20
204.8187297029
 30
0.0
 11
279.9735143968
 21
205.0692147029
 31
0.0
  0
LINE
  5
16D
330
1F
100
AcDbEntity
  8
SLD-0
  6
Continuous
 62
   179
100
AcDbLine
 10
279.9735143968
 20
205.0692147029
 30
0.0
 11
279.6894033968
 21
205.2949217029
 31
0.0
  0
LINE
  5
16E
330
1F
100
AcDbEntity
  8
SLD-0
  6
Continuous
 62
   179
100
AcDbLine
 10
279.6894033968
 20
205.2949217029
 30
0.0
 11
279.3873713968
 21
205.4941337029
 31
0.0
  0
LINE
  5
16F
330
1F
100
AcDbEntity
  8
SLD-0
  6
Continuous
 62
   179
100
AcDbLine
 10
279.3873713968
 20
205.4941337029
 30
0.0
 11
279.0697193968
 21
205.6653337029
 31
0.0
  0
LINE
  5
170
330
1F
100
AcDbEntity
  8
SLD-0
  6
Continuous
 62
   179
100
AcDbLine
 10
279.0697193968
 20
205.6653337029
 30
0.0
 11
278.7388643968
 21
205.8072197029
 31
0.0
  0
LINE
  5
171
330
1F
100
AcDbEntity
  8
SLD-0
  6
Continuous
 62
   179
100
AcDbLine
 10
278.7388643968
 20
205.8072197029
 30
0.0
 11
278.3973233968
 21
205.9187107029
 31
0.0
  0
LINE
  5
172
330
1F
100
AcDbEntity
  8
SLD-0
  6
Continuous
 62
   179
100
AcDbLine
 10
278.3973233968
 20
205.9187107029
 30
0.0
 11
278.0476973968
 21
205.9989587029
 31
0.0
  0
LINE
  5
173
330
1F
100
AcDbEntity
  8
SLD-0
  6
Continuous
 62
   179
100
AcDbLine
 10
278.0476973968
 20
205.9989587029
 30
0.0
 11
277.6926463968
 21
206.0473537029
 31
0.0
  0
LINE
  5
174
330
1F
100
AcDbEntity
  8
SLD-0
  6
Continuous
 62
   179
100
AcDbLine
 10
277.6926463968
 20
206.0473537029
 30
0.0
 11
277.3348713968
 21
206.0635257029
 31
0.0
  0
LINE
  5
175
330
1F
100
AcDbEntity
  8
SLD-0
  6
Continuous
 62
   179
100
AcDbLine
 10
277.3348713968
 20
206.5635257029
 30
0.0
 11
276.9352623968
 21
206.5454507029
 31
0.0
  0
LINE
  5
176
330
1F
100
AcDbEntity
  8
SLD-0
  6
Continuous
 62
   179
100
AcDbLine
 10
276.9352623968
 20
206.5454507029
 30
0.0
 11
276.5386943968
 21
206.4913627029
 31
0.0
  0
LINE
  5
177
330
1F
100
AcDbEntity
  8
SLD-0
  6
Continuous
 62
   179
100
AcDbLine
 10
276.5386943968
 20
206.4913627029
 30
0.0
 11
276.1481863968
 21
206.4016737029
 31
0.0
  0
LINE
  5
178
330
1F
100
AcDbEntity
  8
SLD-0
  6
Continuous
 62
   179
100
AcDbLine
 10
276.1481863968
 20
206.4016737029
 30
0.0
 11
275.7667093968
 21
206.2770657029
 31
0.0
  0
LINE
  5
179
330
1F
100
AcDbEntity
  8
SLD-0
  6
Continuous
 62
   179
100
AcDbLine
 10
275.7667093968
 20
206.2770657029
 30
0.0
 11
275.3971673968
 21
206.1184877029
 31
0.0
  0
LINE
  5
17A
330
1F
100
AcDbEntity
  8
SLD-0
  6
Continuous
 62
   179
100
AcDbLine
 10
275.3971673968
 20
206.1184877029
 30
0.0
 11
275.0423713968
 21
205.9271467029
 31
0.0
  0
LINE
  5
17B
330
1F
100
AcDbEntity
  8
SLD-0
  6
Continuous
 62
   179
100
AcDbLine
 10
275.0423713968
 20
205.9271467029
 30
0.0
 11
274.7050233968
 21
205.7044977029
 31
0.0
  0
LINE
  5
17C
330
1F
100
AcDbEntity
  8
SLD-0
  6
Continuous
 62
   179
100
AcDbLine
 10
274.7050233968
 20
205.7044977029
 30
0.0
 11
274.3876903968
 21
205.4522367029
 31
0.0
  0
LINE
  5
17D
330
1F
100
AcDbEntity
  8
SLD-0
  6
Continuous
 62
   179
100
AcDbLine
 10
274.3876903968
 20
205.4522367029
 30
0.0
 11
274.0927873968
 21
205.1722827029
 31
0.0
  0
LINE
  5
17E
330
1F
100
AcDbEntity
  8
SLD-0
  6
Continuous
 62
   179
100
AcDbLine
 10
274.0927873968
 20
205.1722827029
 30
0.0
 11
273.8225583968
 21
204.8667667029
 31
0.0
  0
LINE
  5
17F
330
1F
100
AcDbEntity
  8
SLD-0
  6
Continuous
 62
   179
100
AcDbLine
 10
273.8225583968
 20
204.8667667029
 30
0.0
 11
273.5790593968
 21
204.5380137029
 31
0.0
  0
LINE
  5
180
330
1F
100
AcDbEntity
  8
SLD-0
  6
Continuous
 62
   179
100
AcDbLine
 10
273.5790593968
 20
204.5380137029
 30
0.0
 11
273.3641453968
 21
204.1885257029
 31
0.0
  0
LINE
  5
181
330
1F
100
AcDbEntity
  8
SLD-0
  6
Continuous
 62
   179
100
AcDbLine
 10
273.3641453968
 20
204.1885257029
 30
0.0
 11
273.1794503968
 21
203.8209627029
 31
0.0
  0
LINE
  5
182
330
1F
100
AcDbEntity
  8
SLD-0
  6
Continuous
 62
   179
100
AcDbLine
 10
273.1794503968
 20
203.8209627029
 30
0.0
 11
273.0263813968
 21
203.4381217029
 31
0.0
  0
LINE
  5
183
330
1F
100
AcDbEntity
  8
SLD-0
  6
Continuous
 62
   179
100
AcDbLine
 10
273.0263813968
 20
203.4381217029
 30
0.0
 11
272.9061013968
 21
203.0429167029
 31
0.0
  0
LINE
  5
184
330
1F
100
AcDbEntity
  8
SLD-0
  6
Continuous
 62
   179
100
AcDbLine
 10
272.9061013968
 20
203.0429167029
 30
0.0
 11
272.8195283968
 21
202.6383547029
 31
0.0
  0
LINE
  5
185
330
1F
100
AcDbEntity
  8
SLD-0
  6
Continuous
 62
   179
100
AcDbLine
 10
272.8195283968
 20
202.6383547029
 30
0.0
 11
272.7673193968
 21
202.2275157029
 31
0.0
  0
LINE
  5
186
330
1F
100
AcDbEntity
  8
SLD-0
  6
Continuous
 62
   179
100
AcDbLine
 10
272.7673193968
 20
202.2275157029
 30
0.0
 11
272.7498713968
 21
201.8135257029
 31
0.0
  0
LINE
  5
187
330
1F
100
AcDbEntity
  8
SLD-0
  6
Continuous
 62
   179
100
AcDbLine
 10
272.7498713968
 20
201.8135257029
 30
0.0
 11
272.7673193968
 21
201.3995357029
 31
0.0
  0
LINE
  5
188
330
1F
100
AcDbEntity
  8
SLD-0
  6
Continuous
 62
   179
100
AcDbLine
 10
272.7673193968
 20
201.3995357029
 30
0.0
 11
272.8195283968
 21
200.9886967029
 31
0.0
  0
LINE
  5
189
330
1F
100
AcDbEntity
  8
SLD-0
  6
Continuous
 62
   179
100
AcDbLine
 10
272.8195283968
 20
200.9886967029
 30
0.0
 11
272.9061013968
 21
200.5841357029
 31
0.0
  0
LINE
  5
18A
330
1F
100
AcDbEntity
  8
SLD-0
  6
Continuous
 62
   179
100
AcDbLine
 10
272.9061013968
 20
200.5841357029
 30
0.0
 11
273.0263813968
 21
200.1889307029
 31
0.0
  0
LINE
  5
18B
330
1F
100
AcDbEntity
  8
SLD-0
  6
Continuous
 62
   179
100
AcDbLine
 10
273.0263813968
 20
200.1889307029
 30
0.0
 11
273.1794503968
 21
199.8060897029
 31
0.0
  0
LINE
  5
18C
330
1F
100
AcDbEntity
  8
SLD-0
  6
Continuous
 62
   179
100
AcDbLine
 10
273.1794503968
 20
199.8060897029
 30
0.0
 11
273.3641453968
 21
199.4385257029
 31
0.0
  0
LINE
  5
18D
330
1F
100
AcDbEntity
  8
SLD-0
  6
Continuous
 62
   179
100
AcDbLine
 10
273.3641453968
 20
199.4385257029
 30
0.0
 11
273.5790593968
 21
199.0890377029
 31
0.0
  0
LINE
  5
18E
330
1F
100
AcDbEntity
  8
SLD-0
  6
Continuous
 62
   179
100
AcDbLine
 10
273.5790593968
 20
199.0890377029
 30
0.0
 11
273.8225583968
 21
198.7602847029
 31
0.0
  0
LINE
  5
18F
330
1F
100
AcDbEntity
  8
SLD-0
  6
Continuous
 62
   179
100
AcDbLine
 10
273.8225583968
 20
198.7602847029
 30
0.0
 11
274.0927873968
 21
198.4547687029
 31
0.0
  0
LINE
  5
190
330
1F
100
AcDbEntity
  8
SLD-0
  6
Continuous
 62
   179
100
AcDbLine
 10
274.0927873968
 20
198.4547687029
 30
0.0
 11
274.3876903968
 21
198.1748147029
 31
0.0
  0
LINE
  5
191
330
1F
100
AcDbEntity
  8
SLD-0
  6
Continuous
 62
   179
100
AcDbLine
 10
274.3876903968
 20
198.1748147029
 30
0.0
 11
274.7050233968
 21
197.9225537029
 31
0.0
  0
LINE
  5
192
330
1F
100
AcDbEntity
  8
SLD-0
  6
Continuous
 62
   179
100
AcDbLine
 10
274.7050233968
 20
197.9225537029
 30
0.0
 11
275.0423713968
 21
197.6999057029
 31
0.0
  0
LINE
  5
193
330
1F
100
AcDbEntity
  8
SLD-0
  6
Continuous
 62
   179
100
AcDbLine
 10
275.0423713968
 20
197.6999057029
 30
0.0
 11
275.3971673968
 21
197.5085637029
 31
0.0
  0
LINE
  5
194
330
1F
100
AcDbEntity
  8
SLD-0
  6
Continuous
 62
   179
100
AcDbLine
 10
275.3971673968
 20
197.5085637029
 30
0.0
 11
275.7667093968
 21
197.3499857029
 31
0.0
  0
LINE
  5
195
330
1F
100
AcDbEntity
  8
SLD-0
  6
Continuous
 62
   179
100
AcDbLine
 10
275.7667093968
 20
197.3499857029
 30
0.0
 11
276.1481863968
 21
197.2253787029
 31
0.0
  0
LINE
  5
196
330
1F
100
AcDbEntity
  8
SLD-0
  6
Continuous
 62
   179
100
AcDbLine
 10
276.1481863968
 20
197.2253787029
 30
0.0
 11
276.5386943968
 21
197.1356887029
 31
0.0
  0
LINE
  5
197
330
1F
100
AcDbEntity
  8
SLD-0
  6
Continuous
 62
   179
100
AcDbLine
 10
276.5386943968
 20
197.1356887029
 30
0.0
 11
276.9352623968
 21
197.0816007029
 31
0.0
  0
LINE
  5
198
330
1F
100
AcDbEntity
  8
SLD-0
  6
Continuous
 62
   179
100
AcDbLine
 10
276.9352623968
 20
197.0816007029
 30
0.0
 11
277.3348713968
 21
197.0635257029
 31
0.0
  0
LINE
  5
199
330
1F
100
AcDbEntity
  8
SLD-0
  6
Continuous
 62
   179
100
AcDbLine
 10
277.3348713968
 20
197.0635257029
 30
0.0
 11
277.7344803968
 21
197.0816007029
 31
0.0
  0
LINE
  5
19A
330
1F
100
AcDbEntity
  8
SLD-0
  6
Continuous
 62
   179
100
AcDbLine
 10
277.7344803968
 20
197.0816007029
 30
0.0
 11
278.1310483968
 21
197.1356887029
 31
0.0
  0
LINE
  5
19B
330
1F
100
AcDbEntity
  8
SLD-0
  6
Continuous
 62
   179
100
AcDbLine
 10
278.1310483968
 20
197.1356887029
 30
0.0
 11
278.5215573968
 21
197.2253787029
 31
0.0
  0
LINE
  5
19C
330
1F
100
AcDbEntity
  8
SLD-0
  6
Continuous
 62
   179
100
AcDbLine
 10
278.5215573968
 20
197.2253787029
 30
0.0
 11
278.9030343968
 21
197.3499857029
 31
0.0
  0
LINE
  5
19D
330
1F
100
AcDbEntity
  8
SLD-0
  6
Continuous
 62
   179
100
AcDbLine
 10
278.9030343968
 20
197.3499857029
 30
0.0
 11
279.2725763968
 21
197.5085637029
 31
0.0
  0
LINE
  5
19E
330
1F
100
AcDbEntity
  8
SLD-0
  6
Continuous
 62
   179
100
AcDbLine
 10
279.2725763968
 20
197.5085637029
 30
0.0
 11
279.6273713968
 21
197.6999057029
 31
0.0
  0
LINE
  5
19F
330
1F
100
AcDbEntity
  8
SLD-0
  6
Continuous
 62
   179
100
AcDbLine
 10
279.6273713968
 20
197.6999057029
 30
0.0
 11
279.9647193968
 21
197.9225537029
 31
0.0
  0
LINE
  5
1A0
330
1F
100
AcDbEntity
  8
SLD-0
  6
Continuous
 62
   179
100
AcDbLine
 10
279.9647193968
 20
197.9225537029
 30
0.0
 11
280.2820523968
 21
198.1748147029
 31
0.0
  0
LINE
  5
1A1
330
1F
100
AcDbEntity
  8
SLD-0
  6
Continuous
 62
   179
100
AcDbLine
 10
280.2820523968
 20
198.1748147029
 30
0.0
 11
280.5769563968
 21
198.4547687029
 31
0.0
  0
LINE
  5
1A2
330
1F
100
AcDbEntity
  8
SLD-0
  6
Continuous
 62
   179
100
AcDbLine
 10
280.5769563968
 20
198.4547687029
 30
0.0
 11
280.8471853968
 21
198.7602847029
 31
0.0
  0
LINE
  5
1A3
330
1F
100
AcDbEntity
  8
SLD-0
  6
Continuous
 62
   179
100
AcDbLine
 10
280.8471853968
 20
198.7602847029
 30
0.0
 11
281.0906833968
 21
199.0890377029
 31
0.0
  0
LINE
  5
1A4
330
1F
100
AcDbEntity
  8
SLD-0
  6
Continuous
 62
   179
100
AcDbLine
 10
281.0906833968
 20
199.0890377029
 30
0.0
 11
281.3055983968
 21
199.4385257029
 31
0.0
  0
LINE
  5
1A5
330
1F
100
AcDbEntity
  8
SLD-0
  6
Continuous
 62
   179
100
AcDbLine
 10
281.3055983968
 20
199.4385257029
 30
0.0
 11
281.4902923968
 21
199.8060897029
 31
0.0
  0
LINE
  5
1A6
330
1F
100
AcDbEntity
  8
SLD-0
  6
Continuous
 62
   179
100
AcDbLine
 10
281.4902923968
 20
199.8060897029
 30
0.0
 11
281.6433623968
 21
200.1889307029
 31
0.0
  0
LINE
  5
1A7
330
1F
100
AcDbEntity
  8
SLD-0
  6
Continuous
 62
   179
100
AcDbLine
 10
281.6433623968
 20
200.1889307029
 30
0.0
 11
281.7636413968
 21
200.5841357029
 31
0.0
  0
LINE
  5
1A8
330
1F
100
AcDbEntity
  8
SLD-0
  6
Continuous
 62
   179
100
AcDbLine
 10
281.7636413968
 20
200.5841357029
 30
0.0
 11
281.8502153968
 21
200.9886967029
 31
0.0
  0
LINE
  5
1A9
330
1F
100
AcDbEntity
  8
SLD-0
  6
Continuous
 62
   179
100
AcDbLine
 10
281.8502153968
 20
200.9886967029
 30
0.0
 11
281.9024243968
 21
201.3995357029
 31
0.0
  0
LINE
  5
1AA
330
1F
100
AcDbEntity
  8
SLD-0
  6
Continuous
 62
   179
100
AcDbLine
 10
281.9024243968
 20
201.3995357029
 30
0.0
 11
281.9198713968
 21
201.8135257029
 31
0.0
  0
LINE
  5
1AB
330
1F
100
AcDbEntity
  8
SLD-0
  6
Continuous
 62
   179
100
AcDbLine
 10
281.9198713968
 20
201.8135257029
 30
0.0
 11
281.9024243968
 21
202.2275157029
 31
0.0
  0
LINE
  5
1AC
330
1F
100
AcDbEntity
  8
SLD-0
  6
Continuous
 62
   179
100
AcDbLine
 10
281.9024243968
 20
202.2275157029
 30
0.0
 11
281.8502153968
 21
202.6383547029
 31
0.0
  0
LINE
  5
1AD
330
1F
100
AcDbEntity
  8
SLD-0
  6
Continuous
 62
   179
100
AcDbLine
 10
281.8502153968
 20
202.6383547029
 30
0.0
 11
281.7636413968
 21
203.0429167029
 31
0.0
  0
LINE
  5
1AE
330
1F
100
AcDbEntity
  8
SLD-0
  6
Continuous
 62
   179
100
AcDbLine
 10
281.7636413968
 20
203.0429167029
 30
0.0
 11
281.6433623968
 21
203.4381217029
 31
0.0
  0
LINE
  5
1AF
330
1F
100
AcDbEntity
  8
SLD-0
  6
Continuous
 62
   179
100
AcDbLine
 10
281.6433623968
 20
203.4381217029
 30
0.0
 11
281.4902923968
 21
203.8209627029
 31
0.0
  0
LINE
  5
1B0
330
1F
100
AcDbEntity
  8
SLD-0
  6
Continuous
 62
   179
100
AcDbLine
 10
281.4902923968
 20
203.8209627029
 30
0.0
 11
281.3055983968
 21
204.1885257029
 31
0.0
  0
LINE
  5
1B1
330
1F
100
AcDbEntity
  8
SLD-0
  6
Continuous
 62
   179
100
AcDbLine
 10
281.3055983968
 20
204.1885257029
 30
0.0
 11
281.0906833968
 21
204.5380137029
 31
0.0
  0
LINE
  5
1B2
330
1F
100
AcDbEntity
  8
SLD-0
  6
Continuous
 62
   179
100
AcDbLine
 10
281.0906833968
 20
204.5380137029
 30
0.0
 11
280.8471853968
 21
204.8667667029
 31
0.0
  0
LINE
  5
1B3
330
1F
100
AcDbEntity
  8
SLD-0
  6
Continuous
 62
   179
100
AcDbLine
 10
280.8471853968
 20
204.8667667029
 30
0.0
 11
280.5769563968
 21
205.1722827029
 31
0.0
  0
LINE
  5
1B4
330
1F
100
AcDbEntity
  8
SLD-0
  6
Continuous
 62
   179
100
AcDbLine
 10
280.5769563968
 20
205.1722827029
 30
0.0
 11
280.2820523968
 21
205.4522367029
 31
0.0
  0
LINE
  5
1B5
330
1F
100
AcDbEntity
  8
SLD-0
  6
Continuous
 62
   179
100
AcDbLine
 10
280.2820523968
 20
205.4522367029
 30
0.0
 11
279.9647193968
 21
205.7044977029
 31
0.0
  0
LINE
  5
1B6
330
1F
100
AcDbEntity
  8
SLD-0
  6
Continuous
 62
   179
100
AcDbLine
 10
279.9647193968
 20
205.7044977029
 30
0.0
 11
279.6273713968
 21
205.9271467029
 31
0.0
  0
LINE
  5
1B7
330
1F
100
AcDbEntity
  8
SLD-0
  6
Continuous
 62
   179
100
AcDbLine
 10
279.6273713968
 20
205.9271467029
 30
0.0
 11
279.2725763968
 21
206.1184877029
 31
0.0
  0
LINE
  5
1B8
330
1F
100
AcDbEntity
  8
SLD-0
  6
Continuous
 62
   179
100
AcDbLine
 10
279.2725763968
 20
206.1184877029
 30
0.0
 11
278.9030343968
 21
206.2770657029
 31
0.0
  0
LINE
  5
1B9
330
1F
100
AcDbEntity
  8
SLD-0
  6
Continuous
 62
   179
100
AcDbLine
 10
278.9030343968
 20
206.2770657029
 30
0.0
 11
278.5215573968
 21
206.4016737029
 31
0.0
  0
LINE
  5
1BA
330
1F
100
AcDbEntity
  8
SLD-0
  6
Continuous
 62
   179
100
AcDbLine
 10
278.5215573968
 20
206.4016737029
 30
0.0
 11
278.1310483968
 21
206.4913627029
 31
0.0
  0
LINE
  5
1BB
330
1F
100
AcDbEntity
  8
SLD-0
  6
Continuous
 62
   179
100
AcDbLine
 10
278.1310483968
 20
206.4913627029
 30
0.0
 11
277.7344803968
 21
206.5454507029
 31
0.0
  0
LINE
  5
1BC
330
1F
100
AcDbEntity
  8
SLD-0
  6
Continuous
 62
   179
100
AcDbLine
 10
277.7344803968
 20
206.5454507029
 30
0.0
 11
277.3348713968
 21
206.5635257029
 31
0.0
  0
ARC
  5
1BD
330
1F
100
AcDbEntity
  8
SLD-0
  6
Continuous
 62
   179
100
AcDbCircle
 10
138.9184633968
 20
120.6808786013
 30
0.0
 40
14.00000006468686
100
AcDbArc
 50
270.0
 51
343.3984505588
  0
ARC
  5
1BE
330
1F
100
AcDbEntity
  8
SLD-0
  6
Continuous
 62
   179
100
AcDbCircle
 10
138.9184633968
 20
56.6808786382
 30
0.0
 40
14.00000006468686
100
AcDbArc
 50
16.6015494412
 51
90.0
  0
ARC
  5
1BF
330
1F
100
AcDbEntity
  8
SLD-0
  6
Continuous
 62
   179
100
AcDbCircle
 10
274.3348713348
 20
74.7121586197
 30
0.0
 40
2.0
100
AcDbArc
 50
180.0
 51
270.0
  0
ARC
  5
1C0
330
1F
100
AcDbEntity
  8
SLD-0
  6
Continuous
 62
   179
100
AcDbCircle
 10
274.3348713348
 20
102.6495976197
 30
0.0
 40
2.0
100
AcDbArc
 50
90.0
 51
180.0
  0
ARC
  5
1C1
330
1F
100
AcDbEntity
  8
SLD-0
  6
Continuous
 62
   179
100
AcDbCircle
 10
254.3348713968
 20
101.4512077029
 30
0.0
 40
2.0
100
AcDbArc
 50
180.0
 51
270.0
  0
ARC
  5
1C2
330
1F
100
AcDbEntity
  8
SLD-0
  6
Continuous
 62
   179
100
AcDbCircle
 10
254.3348713968
 20
75.9105487029
 30
0.0
 40
2.0
100
AcDbArc
 50
90.0
 51
180.0
  0
CIRCLE
  5
1C3
330
1F
100
AcDbEntity
  8
SLD-0
  6
Continuous
 62
   179
100
AcDbCircle
 10
237.3348713968
 20
111.6808787029
 30
0.0
 40
2.099999999999994
  0
CIRCLE
  5
1C4
330
1F
100
AcDbEntity
  8
SLD-0
  6
Continuous
 62
   179
100
AcDbCircle
 10
237.3348713968
 20
65.6808787029
 30
0.0
 40
2.099999999999994
  0
CIRCLE
  5
1C5
330
1F
100
AcDbEntity
  8
SLD-0
  6
Continuous
 62
   179
100
AcDbCircle
 10
177.3348713968
 20
111.6808787029
 30
0.0
 40
2.099999999999994
  0
CIRCLE
  5
1C6
330
1F
100
AcDbEntity
  8
SLD-0
  6
Continuous
 62
   179
100
AcDbCircle
 10
157.3348713968
 20
108.6808787029
 30
0.0
 40
2.650000000000006
  0
ARC
  5
1C7
330
1F
100
AcDbEntity
  8
SLD-0
  6
Continuous
 62
   179
100
AcDbCircle
 10
133.8348713968
 20
108.6808787029
 30
0.0
 40
0.5
100
AcDbArc
 50
90.0
 51
270.0
  0
CIRCLE
  5
1C8
330
1F
100
AcDbEntity
  8
SLD-0
  6
Continuous
 62
   179
100
AcDbCircle
 10
135.8348713968
 20
108.6808787029
 30
0.0
 40
0.5
  0
CIRCLE
  5
1C9
330
1F
100
AcDbEntity
  8
SLD-0
  6
Continuous
 62
   179
100
AcDbCircle
 10
132.3348713968
 20
108.6808787029
 30
0.0
 40
0.5999999999999943
  0
CIRCLE
  5
1CA
330
1F
100
AcDbEntity
  8
SLD-0
  6
Continuous
 62
   179
100
AcDbCircle
 10
132.3348713968
 20
108.6808787029
 30
0.0
 40
0.5
  0
ARC
  5
1CB
330
1F
100
AcDbEntity
  8
SLD-0
  6
Continuous
 62
   179
100
AcDbCircle
 10
130.8348713968
 20
68.6808787029
 30
0.0
 40
0.5
100
AcDbArc
 50
90.0
 51
270.0
  0
ARC
  5
1CC
330
1F
100
AcDbEntity
  8
SLD-0
  6
Continuous
 62
   179
100
AcDbCircle
 10
134.8348713968
 20
68.6808787029
 30
0.0
 40
0.5
100
AcDbArc
 50
270.0
 51
90.0
  0
ARC
  5
1CD
330
1F
100
AcDbEntity
  8
SLD-0
  6
Continuous
 62
   179
100
AcDbCircle
 10
132.3348713968
 20
68.6808787029
 30
0.0
 40
0.5999999999999874
100
AcDbArc
 50
236.44269
 51
303.55731
  0
ARC
  5
1CE
330
1F
100
AcDbEntity
  8
SLD-0
  6
Continuous
 62
   179
100
AcDbCircle
 10
132.3348713968
 20
68.6808787029
 30
0.0
 40
0.6000000000000111
100
AcDbArc
 50
56.44269
 51
123.55731
  0
CIRCLE
  5
1CF
330
1F
100
AcDbEntity
  8
SLD-0
  6
Continuous
 62
   179
100
AcDbCircle
 10
157.3348713968
 20
68.6808787029
 30
0.0
 40
2.650000000000006
  0
CIRCLE
  5
1D0
330
1F
100
AcDbEntity
  8
SLD-0
  6
Continuous
 62
   179
100
AcDbCircle
 10
177.3348713968
 20
65.6808787029
 30
0.0
 40
2.099999999999994
  0
ARC
  5
1D1
330
1F
100
AcDbEntity
  8
SLD-0
  6
Continuous
 62
   179
100
AcDbCircle
 10
274.3348713968
 20
169.5665927029
 30
0.0
 40
2.0
100
AcDbArc
 50
90.0
 51
180.0
  0
ARC
  5
1D2
330
1F
100
AcDbEntity
  8
SLD-0
  6
Continuous
 62
   179
100
AcDbCircle
 10
274.3348713968
 20
219.5665927029
 30
0.0
 40
2.0
100
AcDbArc
 50
180.0
 51
270.0
  0
ARC
  5
1D3
330
1F
100
AcDbEntity
  8
SLD-0
  6
Continuous
 62
   179
100
AcDbCircle
 10
254.3348713968
 20
207.3369227029
 30
0.0
 40
2.0
100
AcDbArc
 50
180.0
 51
270.0
  0
ARC
  5
1D4
330
1F
100
AcDbEntity
  8
SLD-0
  6
Continuous
 62
   179
100
AcDbCircle
 10
254.3348713968
 20
181.7962627029
 30
0.0
 40
2.0
100
AcDbArc
 50
90.0
 51
180.0
  0
CIRCLE
  5
1D5
330
1F
100
AcDbEntity
  8
SLD-0
  6
Continuous
 62
   179
100
AcDbCircle
 10
247.3348713968
 20
171.5665927029
 30
0.0
 40
2.099999999999994
  0
CIRCLE
  5
1D6
330
1F
100
AcDbEntity
  8
SLD-0
  6
Continuous
 62
   179
100
AcDbCircle
 10
247.3348713968
 20
217.5665927029
 30
0.0
 40
2.099999999999994
  0
ARC
  5
1D7
330
1F
100
AcDbEntity
  8
SLD-0
  6
Continuous
 62
   179
100
AcDbCircle
 10
344.3902613968
 20
194.5665927029
 30
0.0
 40
26.50000000000011
100
AcDbArc
 50
299.781655
 51
60.218345
  0
ARC
  5
1D8
330
1F
100
AcDbEntity
  8
SLD-0
  6
Continuous
 62
   179
100
AcDbCircle
 10
344.3902613968
 20
194.5665927029
 30
0.0
 40
26.5
100
AcDbArc
 50
119.781655
 51
240.218345
  0
CIRCLE
  5
1D9
330
1F
100
AcDbEntity
  8
SLD-0
  6
Continuous
 62
   179
100
AcDbCircle
 10
344.3902613968
 20
194.5665927029
 30
0.0
 40
4.250000000000057
  0
CIRCLE
  5
1DA
330
1F
100
AcDbEntity
  8
SLD-0
  6
Continuous
 62
   179
100
AcDbCircle
 10
344.3902613968
 20
194.5665927029
 30
0.0
 40
28.00000000000011
  0
CIRCLE
  5
1DB
330
1F
100
AcDbEntity
  8
SLD-0
  6
Continuous
 62
   179
100
AcDbCircle
 10
344.3902613968
 20
194.5665927029
 30
0.0
 40
3.000000000000057
  0
CIRCLE
  5
1DC
330
1F
100
AcDbEntity
  8
SLD-0
  6
Continuous
 62
   179
100
AcDbCircle
 10
330.2481263968
 20
180.4244567029
 30
0.0
 40
2.5
  0
CIRCLE
  5
1DD
330
1F
100
AcDbEntity
  8
SLD-0
  6
Continuous
 62
   179
100
AcDbCircle
 10
358.5323973968
 20
208.7087287029
 30
0.0
 40
2.5
  0
CIRCLE
  5
1DE
330
1F
100
AcDbEntity
  8
SLD-0
  6
Continuous
 62
   179
100
AcDbCircle
 10
187.3348713968
 20
171.5665927029
 30
0.0
 40
2.099999999999994
  0
ARC
  5
1DF
330
1F
100
AcDbEntity
  8
SLD-0
  6
Continuous
 62
   179
100
AcDbCircle
 10
132.3348711396
 20
194.566592539
 30
0.0
 40
6.500000000000003
100
AcDbArc
 50
298.649435
 51
67.825022
  0
ARC
  5
1E0
330
1F
100
AcDbEntity
  8
SLD-0
  6
Continuous
 62
   179
100
AcDbCircle
 10
132.3348711396
 20
194.566592539
 30
0.0
 40
6.200000000000045
100
AcDbArc
 50
298.092363
 51
67.45418
  0
ARC
  5
1E1
330
1F
100
AcDbEntity
  8
SLD-0
  6
Continuous
 62
   179
100
AcDbCircle
 10
132.334871331
 20
201.0665925642
 30
0.0
 40
2.500000000000029
100
AcDbArc
 50
335.595468
 51
244.623066
  0
ARC
  5
1E2
330
1F
100
AcDbEntity
  8
SLD-0
  6
Continuous
 62
   179
100
AcDbCircle
 10
130.8348713968
 20
197.9043147029
 30
0.0
 40
1.000000153520271
100
AcDbArc
 50
0.0
 51
64.6230760066
  0
ARC
  5
1E3
330
1F
100
AcDbEntity
  8
SLD-0
  6
Continuous
 62
   179
100
AcDbCircle
 10
130.8348713968
 20
197.9043147029
 30
0.0
 40
2.00000000000001
100
AcDbArc
 50
0.0
 51
64.623066
  0
ARC
  5
1E4
330
1F
100
AcDbEntity
  8
SLD-0
  6
Continuous
 62
   179
100
AcDbCircle
 10
132.334871331
 20
201.0665925642
 30
0.0
 40
1.500000153520277
100
AcDbArc
 50
335.595468
 51
244.6230726711
  0
ARC
  5
1E5
330
1F
100
AcDbEntity
  8
SLD-0
  6
Continuous
 62
   179
100
AcDbCircle
 10
137.4309042274
 20
198.7544436112
 30
0.0
 40
4.096032732626511
100
AcDbArc
 50
155.5954697905
 51
219.412907
  0
ARC
  5
1E6
330
1F
100
AcDbEntity
  8
SLD-0
  6
Continuous
 62
   179
100
AcDbCircle
 10
132.3348711396
 20
194.566592539
 30
0.0
 40
3.500000000000028
100
AcDbArc
 50
319.24837
 51
39.412907
  0
ARC
  5
1E7
330
1F
100
AcDbEntity
  8
SLD-0
  6
Continuous
 62
   179
100
AcDbCircle
 10
136.1660285934
 20
190.859373868
 30
0.0
 40
1.831156743247658
100
AcDbArc
 50
135.941912
 51
220.0000122162
  0
ARC
  5
1E8
330
1F
100
AcDbEntity
  8
SLD-0
  6
Continuous
 62
   179
100
AcDbCircle
 10
136.1660285934
 20
190.859373868
 30
0.0
 40
2.831156760596024
100
AcDbArc
 50
135.941912
 51
219.9999912052
  0
CIRCLE
  5
1E9
330
1F
100
AcDbEntity
  8
SLD-0
  6
Continuous
 62
   179
100
AcDbCircle
 10
132.3348711396
 20
194.566592539
 30
0.0
 40
2.500000000000012
  0
CIRCLE
  5
1EA
330
1F
100
AcDbEntity
  8
SLD-0
  6
Continuous
 62
   179
100
AcDbCircle
 10
132.3348711396
 20
194.566592539
 30
0.0
 40
1.999999999999995
  0
ARC
  5
1EB
330
1F
100
AcDbEntity
  8
SLD-0
  6
Continuous
 62
   179
100
AcDbCircle
 10
137.4309042274
 20
198.7544436112
 30
0.0
 40
3.096032886146726
100
AcDbArc
 50
155.5954703688
 51
219.4128985086
  0
ARC
  5
1EC
330
1F
100
AcDbEntity
  8
SLD-0
  6
Continuous
 62
   179
100
AcDbCircle
 10
132.3348711396
 20
194.566592539
 30
0.0
 40
6.200000000000016
100
AcDbArc
 50
76.70551
 51
103.29449
  0
ARC
  5
1ED
330
1F
100
AcDbEntity
  8
SLD-0
  6
Continuous
 62
   179
100
AcDbCircle
 10
132.3348711396
 20
194.566592539
 30
0.0
 40
6.500000000000015
100
AcDbArc
 50
76.748381
 51
103.251619
  0
ARC
  5
1EE
330
1F
100
AcDbEntity
  8
SLD-0
  6
Continuous
 62
   179
100
AcDbCircle
 10
132.3348711396
 20
194.566592539
 30
0.0
 40
6.200000000000023
100
AcDbArc
 50
112.54582
 51
265.374349
  0
ARC
  5
1EF
330
1F
100
AcDbEntity
  8
SLD-0
  6
Continuous
 62
   179
100
AcDbCircle
 10
132.3348711396
 20
194.566592539
 30
0.0
 40
6.499999999999981
100
AcDbArc
 50
112.174978
 51
265.588274
  0
ARC
  5
1F0
330
1F
100
AcDbEntity
  8
SLD-0
  6
Continuous
 62
   179
100
AcDbCircle
 10
132.3348711396
 20
194.566592539
 30
0.0
 40
6.200000000000009
100
AcDbArc
 50
274.625651
 51
288.430784
  0
ARC
  5
1F1
330
1F
100
AcDbEntity
  8
SLD-0
  6
Continuous
 62
   179
100
AcDbCircle
 10
132.3348711396
 20
194.566592539
 30
0.0
 40
6.499999999999985
100
AcDbArc
 50
274.411726
 51
289.472456
  0
CIRCLE
  5
1F2
330
1F
100
AcDbEntity
  8
SLD-0
  6
Continuous
 62
   179
100
AcDbCircle
 10
187.3348713968
 20
217.5665927029
 30
0.0
 40
2.099999999999994
  0
ARC
  5
1F3
330
1F
100
AcDbEntity
  8
SLD-0
  6
Continuous
 62
   179
100
AcDbCircle
 10
99.0816103783
 20
209.1501847649
 30
0.0
 40
14.00000006468685
100
AcDbArc
 50
106.6015494412
 51
180.0
  0
ARC
  5
1F4
330
1F
100
AcDbEntity
  8
SLD-0
  6
Continuous
 62
   179
100
AcDbCircle
 10
99.0816103783
 20
179.9830006409
 30
0.0
 40
14.00000006468687
100
AcDbArc
 50
180.0
 51
253.3984505588
  0
ARC
  5
1F5
330
1F
100
AcDbEntity
  8
SLD-0
  6
Continuous
 62
   179
100
AcDbCircle
 10
67.0816103968
 20
194.5665927029
 30
0.0
 40
24.2
100
AcDbArc
 50
249.436842
 51
290.563158
  0
ARC
  5
1F6
330
1F
100
AcDbEntity
  8
SLD-0
  6
Continuous
 62
   179
100
AcDbCircle
 10
67.0816103968
 20
194.5665927029
 30
0.0
 40
24.20000000000002
100
AcDbArc
 50
69.436842
 51
110.563158
  0
ARC
  5
1F7
330
1F
100
AcDbEntity
  8
SLD-0
  6
Continuous
 62
   179
100
AcDbCircle
 10
35.0816104152
 20
209.1501847649
 30
0.0
 40
14.00000006468685
100
AcDbArc
 50
360.0
 51
73.3984505588
  0
ARC
  5
1F8
330
1F
100
AcDbEntity
  8
SLD-0
  6
Continuous
 62
   179
100
AcDbCircle
 10
47.0816103968
 20
186.0665927029
 30
0.0
 40
0.5000000000000071
100
AcDbArc
 50
180.0
 51
0.0
  0
ARC
  5
1F9
330
1F
100
AcDbEntity
  8
SLD-0
  6
Continuous
 62
   179
100
AcDbCircle
 10
35.0816104152
 20
179.9830006409
 30
0.0
 40
14.00000006468687
100
AcDbArc
 50
286.6015494412
 51
0.0
  0
ARC
  5
1FA
330
1F
100
AcDbEntity
  8
SLD-0
  6
Continuous
 62
   179
100
AcDbCircle
 10
87.0816103968
 20
203.0665927029
 30
0.0
 40
0.5
100
AcDbArc
 50
0.0
 51
180.0
  0
CIRCLE
  5
1FB
330
1F
100
AcDbEntity
  8
SLD-0
  6
Continuous
 62
   179
100
AcDbCircle
 10
237.3348713968
 20
111.6808787029
 30
0.0
 40
2.5
  0
CIRCLE
  5
1FC
330
1F
100
AcDbEntity
  8
SLD-0
  6
Continuous
 62
   179
100
AcDbCircle
 10
177.3348713968
 20
111.6808787029
 30
0.0
 40
2.5
  0
CIRCLE
  5
1FD
330
1F
100
AcDbEntity
  8
SLD-0
  6
Continuous
 62
   179
100
AcDbCircle
 10
177.3348713968
 20
65.6808787029
 30
0.0
 40
2.5
  0
CIRCLE
  5
1FE
330
1F
100
AcDbEntity
  8
SLD-0
  6
Continuous
 62
   179
100
AcDbCircle
 10
237.3348713968
 20
65.6808787029
 30
0.0
 40
2.5
  0
CIRCLE
  5
1FF
330
1F
100
AcDbEntity
  8
SLD-0
  6
Continuous
 62
   179
100
AcDbCircle
 10
187.3348713968
 20
171.5665927029
 30
0.0
 40
2.500000000000028
  0
CIRCLE
  5
200
330
1F
100
AcDbEntity
  8
SLD-0
  6
Continuous
 62
   179
100
AcDbCircle
 10
247.3348713968
 20
171.5665927029
 30
0.0
 40
2.5
  0
CIRCLE
  5
201
330
1F
100
AcDbEntity
  8
SLD-0
  6
Continuous
 62
   179
100
AcDbCircle
 10
247.3348713968
 20
217.5665927029
 30
0.0
 40
2.5
  0
CIRCLE
  5
202
330
1F
100
AcDbEntity
  8
SLD-0
  6
Continuous
 62
   179
100
AcDbCircle
 10
187.3348713968
 20
217.5665927029
 30
0.0
 40
2.500000000000028
  0
CIRCLE
  5
203
330
1F
100
AcDbEntity
  8
SLD-0
  6
Continuous
 62
   179
100
AcDbCircle
 10
344.3902613968
 20
194.5665927029
 30
0.0
 40
4.750000000000057
  0
CIRCLE
  5
204
330
1F
100
AcDbEntity
  8
SLD-0
  6
Continuous
 62
   179
100
AcDbCircle
 10
358.5323973968
 20
208.7087287029
 30
0.0
 40
3.0
  0
CIRCLE
  5
205
330
1F
100
AcDbEntity
  8
SLD-0
  6
Continuous
 62
   179
100
AcDbCircle
 10
330.2481263968
 20
180.4244567029
 30
0.0
 40
3.0
  0
MTEXT
  5
207
330
1F
100
AcDbEntity
  8
SLD-0
 62
     7
100
AcDbMText
 10
344.4592552174
 20
45.4304450529
 30
0.0
 40
4.8000001907
 41
0.0
 71
     1
 72
     1
  1
エアニッパー（角型）
  7
SLDTEXTSTYLE5
 73
     1
 44
1.0
  0
MTEXT
  5
209
330
1F
100
AcDbEntity
  8
SLD-0
 62
     7
100
AcDbMText
 10
350.8262438788
 20
32.3799380039
 30
0.0
 40
4.8000001907
 41
0.0
 71
     1
 72
     1
  1
ＧＴ－ＮＳ３０
  7
SLDTEXTSTYLE6
 73
     1
 44
1.0
  0
MTEXT
  5
20B
330
1F
100
AcDbEntity
  8
SLD-0
 62
     7
100
AcDbMText
 10
354.6145956091
 20
19.8847716804
 30
0.0
 40
4.8000001907
 41
0.0
 71
     1
 72
     1
  1
０６０２４２
  7
SLDTEXTSTYLE7
 73
     1
 44
1.0
  0
INSERT
  5
20C
330
1F
100
AcDbEntity
  8
0
  6
Continuous
 62
     7
370
     0
100
AcDbBlockReference
  2
KOZU0001
 10
279.3757420004
 20
206.7045260469
 30
0.0
  0
INSERT
  5
20D
330
1F
100
AcDbEntity
  8
0
  6
Continuous
 62
     7
370
     0
100
AcDbBlockReference
  2
KOZU0002
 10
331.2821539858
 20
177.6082914121
 30
0.0
  0
INSERT
  5
20E
330
1F
100
AcDbEntity
  8
0
  6
Continuous
 62
     7
370
     0
100
AcDbBlockReference
  2
KOZU0003
 10
188.0667826367
 20
169.1761312544
 30
0.0
  0
INSERT
  5
20F
330
1F
100
AcDbEntity
  8
0
  6
Continuous
 62
     7
370
     0
100
AcDbBlockReference
  2
KOZU0004
 10
346.0187136215
 20
199.0287270971
 30
0.0
  0
INSERT
  5
210
330
1F
100
AcDbEntity
  8
0
  6
Continuous
 62
     7
370
     0
100
AcDbBlockReference
  2
KOZU0005
 10
158.3229231409
 20
66.221965579
 30
0.0
  0
ENDSEC
  0
SECTION
  2
OBJECTS
  0
DICTIONARY
  5
C
330
0
100
AcDbDictionary
281
     1
  3
ACAD_GROUP
350
D
  3
ACAD_LAYOUT
350
1A
  3
ACAD_MLINESTYLE
350
17
  3
ACAD_PLOTSETTINGS
350
19
  3
ACAD_PLOTSTYLENAME
350
E
  0
DICTIONARY
  5
D
102
{ACAD_REACTORS
330
C
102
}
330
C
100
AcDbDictionary
281
     1
  0
DICTIONARY
  5
1A
102
{ACAD_REACTORS
330
C
102
}
330
C
100
AcDbDictionary
281
     1
  3
Layout1
350
1E
  3
Layout2
350
26
  3
Model
350
22
  0
DICTIONARY
  5
17
102
{ACAD_REACTORS
330
C
102
}
330
C
100
AcDbDictionary
281
     1
  3
Standard
350
18
  0
DICTIONARY
  5
19
102
{ACAD_REACTORS
330
C
102
}
330
C
100
AcDbDictionary
281
     1
  0
ACDBDICTIONARYWDFLT
  5
E
102
{ACAD_REACTORS
330
C
102
}
330
C
100
AcDbDictionary
281
     1
  3
Normal
350
F
100
AcDbDictionaryWithDefault
340
F
  0
LAYOUT
  5
1E
102
{ACAD_REACTORS
330
1A
102
}
330
1A
100
AcDbPlotSettings
  1

  2

  4

  6

 40
0.0
 41
0.0
 42
0.0
 43
0.0
 44
0.0
 45
0.0
 46
0.0
 47
0.0
 48
0.0
 49
0.0
140
0.0
141
0.0
142
1.0
143
1.0
 70
   688
 72
     0
 73
     0
 74
     5
  7

 75
    16
147
1.0
148
0.0
149
0.0
100
AcDbLayout
  1
Layout1
 70
     1
 71
     1
 10
0.0
 20
0.0
 11
0.0
 21
0.0
 12
0.0
 22
0.0
 32
0.0
 14
0.0
 24
0.0
 34
0.0
 15
0.0
 25
0.0
 35
0.0
146
0.0
 13
0.0
 23
0.0
 33
0.0
 16
1.0
 26
0.0
 36
0.0
 17
0.0
 27
1.0
 37
0.0
 76
     0
330
1B
  0
LAYOUT
  5
26
102
{ACAD_REACTORS
330
1A
102
}
330
1A
100
AcDbPlotSettings
  1

  2

  4

  6

 40
0.0
 41
0.0
 42
0.0
 43
0.0
 44
0.0
 45
0.0
 46
0.0
 47
0.0
 48
0.0
 49
0.0
140
0.0
141
0.0
142
1.0
143
1.0
 70
   688
 72
     0
 73
     0
 74
     5
  7

 75
    16
147
1.0
148
0.0
149
0.0
100
AcDbLayout
  1
Layout2
 70
     1
 71
     2
 10
0.0
 20
0.0
 11
0.0
 21
0.0
 12
0.0
 22
0.0
 32
0.0
 14
0.0
 24
0.0
 34
0.0
 15
0.0
 25
0.0
 35
0.0
146
0.0
 13
0.0
 23
0.0
 33
0.0
 16
1.0
 26
0.0
 36
0.0
 17
0.0
 27
1.0
 37
0.0
 76
     0
330
23
  0
LAYOUT
  5
22
102
{ACAD_REACTORS
330
1A
102
}
330
1A
100
AcDbPlotSettings
  1

  2

  4

  6

 40
0.0
 41
0.0
 42
0.0
 43
0.0
 44
0.0
 45
0.0
 46
0.0
 47
0.0
 48
0.0
 49
0.0
140
0.0
141
0.0
142
1.0
143
1.0
 70
  1712
 72
     0
 73
     0
 74
     0
  7

 75
     0
147
1.0
148
0.0
149
0.0
100
AcDbLayout
  1
Model
 70
     1
 71
     0
 10
0.0
 20
0.0
 11
0.0
 21
0.0
 12
0.0
 22
0.0
 32
0.0
 14
0.0
 24
0.0
 34
0.0
 15
420.0
 25
297.0
 35
0.0
146
0.0
 13
0.0
 23
0.0
 33
0.0
 16
1.0
 26
0.0
 36
0.0
 17
0.0
 27
1.0
 37
0.0
 76
     0
330
1F
  0
MLINESTYLE
  5
18
102
{ACAD_REACTORS
330
17
102
}
330
17
100
AcDbMlineStyle
  2
Standard
 70
     0
  3

 62
   256
 51
90.0
 52
90.0
 71
     2
 49
0.5
 62
   256
  6
BYLAYER
 49
-0.5
 62
   256
  6
BYLAYER
  0
ACDBPLACEHOLDER
  5
F
102
{ACAD_REACTORS
330
E
102
}
330
E
  0
ENDSEC
  0
EOF
