  0
SECTION
  2
HEADER
  9
$ACADVER
  1
AC1015
  9
$ACADMAINTVER
 70
     6
  9
$DWGCODEPAGE
  3
DOS932
  9
$INSBASE
 10
0.0
 20
0.0
 30
0.0
  9
$EXTMIN
 10
0.0
 20
0.0
 30
0.0
  9
$EXTMAX
 10
420.0
 20
297.0
 30
0.0
  9
$LIMMIN
 10
0.0
 20
0.0
  9
$LIMMAX
 10
0.0
 20
0.0
  9
$ORTHOMODE
 70
     0
  9
$REGENMODE
 70
     1
  9
$FILLMODE
 70
     1
  9
$QTEXTMODE
 70
     0
  9
$MIRRTEXT
 70
     1
  9
$LTSCALE
 40
1.0
  9
$ATTMODE
 70
     1
  9
$TEXTSIZE
 40
3.5
  9
$TRACEWID
 40
1.0
  9
$TEXTSTYLE
  7
Standard
  9
$CLAYER
  8
0
  9
$CELTYPE
  6
ByLayer
  9
$CECOLOR
 62
   256
  9
$CELTSCALE
 40
1.0
  9
$DISPSILH
 70
     0
  9
$DIMSCALE
 40
1.0
  9
$DIMASZ
 40
3.0
  9
$DIMEXO
 40
1.0
  9
$DIMDLI
 40
3.75
  9
$DIMRND
 40
0.0
  9
$DIMDLE
 40
0.0
  9
$DIMEXE
 40
1.0
  9
$DIMTP
 40
0.0
  9
$DIMTM
 40
0.0
  9
$DIMTXT
 40
3.2
  9
$DIMCEN
 40
2.5
  9
$DIMTSZ
 40
0.0
  9
$DIMTOL
 70
     0
  9
$DIMLIM
 70
     0
  9
$DIMTIH
 70
     1
  9
$DIMTOH
 70
     1
  9
$DIMSE1
 70
     0
  9
$DIMSE2
 70
     0
  9
$DIMTAD
 70
     1
  9
$DIMZIN
 70
     1
  9
$DIMBLK
  1

  9
$DIMASO
 70
     1
  9
$DIMSHO
 70
     1
  9
$DIMPOST
  1

  9
$DIMAPOST
  1

  9
$DIMALT
 70
     0
  9
$DIMALTD
 70
     3
  9
$DIMALTF
 40
0.0393700787
  9
$DIMLFAC
 40
1.0
  9
$DIMTOFL
 70
     1
  9
$DIMTVP
 40
0.0
  9
$DIMTIX
 70
     0
  9
$DIMSOXD
 70
     0
  9
$DIMSAH
 70
     0
  9
$DIMBLK1
  1

  9
$DIMBLK2
  1

  9
$DIMSTYLE
  2
ISO-25
  9
$DIMCLRD
 70
     0
  9
$DIMCLRE
 70
     0
  9
$DIMCLRT
 70
     0
  9
$DIMTFAC
 40
1.0
  9
$DIMGAP
 40
1.524
  9
$DIMJUST
 70
     0
  9
$DIMSD1
 70
     0
  9
$DIMSD2
 70
     0
  9
$DIMTOLJ
 70
     0
  9
$DIMTZIN
 70
     1
  9
$DIMALTZ
 70
     0
  9
$DIMALTTZ
 70
     0
  9
$DIMUPT
 70
     0
  9
$DIMDEC
 70
     2
  9
$DIMTDEC
 70
     2
  9
$DIMALTU
 70
     2
  9
$DIMALTTD
 70
     3
  9
$DIMTXSTY
  7
Standard
  9
$DIMAUNIT
 70
     0
  9
$DIMADEC
 70
     0
  9
$DIMALTRND
 40
0.0
  9
$DIMAZIN
 70
     0
  9
$DIMDSEP
 70
    44
  9
$DIMATFIT
 70
     3
  9
$DIMFRAC
 70
     0
  9
$DIMLDRBLK
  1

  9
$DIMLUNIT
 70
     2
  9
$DIMLWD
 70
    -2
  9
$DIMLWE
 70
    -2
  9
$DIMTMOVE
 70
     0
  9
$LUNITS
 70
     2
  9
$LUPREC
 70
     4
  9
$SKETCHINC
 40
1.0
  9
$FILLETRAD
 40
10.0
  9
$AUNITS
 70
     0
  9
$AUPREC
 70
     0
  9
$MENU
  1
.
  9
$ELEVATION
 40
0.0
  9
$PELEVATION
 40
0.0
  9
$THICKNESS
 40
0.0
  9
$LIMCHECK
 70
     0
  9
$CHAMFERA
 40
10.0
  9
$CHAMFERB
 40
10.0
  9
$CHAMFERC
 40
20.0
  9
$CHAMFERD
 40
0.0
  9
$SKPOLY
 70
     0
  9
$TDCREATE
 40
2454307.541596308
  9
$TDUCREATE
 40
2454307.166596308
  9
$TDUPDATE
 40
2454307.54159632
  9
$TDUUPDATE
 40
2454307.16659632
  9
$TDINDWG
 40
0.0000000116
  9
$TDUSRTIMER
 40
0.0000000116
  9
$USRTIMER
 70
     1
  9
$ANGBASE
 50
0.0
  9
$ANGDIR
 70
     0
  9
$PDMODE
 70
     0
  9
$PDSIZE
 40
-1.0
  9
$PLINEWID
 40
0.0
  9
$SPLFRAME
 70
     0
  9
$SPLINETYPE
 70
     6
  9
$SPLINESEGS
 70
     8
  9
$HANDSEED
  5
350
  9
$SURFTAB1
 70
     6
  9
$SURFTAB2
 70
     6
  9
$SURFTYPE
 70
     6
  9
$SURFU
 70
     6
  9
$SURFV
 70
     6
  9
$UCSBASE
  2

  9
$UCSNAME
  2

  9
$UCSORG
 10
0.0
 20
0.0
 30
0.0
  9
$UCSXDIR
 10
1.0
 20
0.0
 30
0.0
  9
$UCSYDIR
 10
0.0
 20
1.0
 30
0.0
  9
$UCSORTHOREF
  2

  9
$UCSORTHOVIEW
 70
     0
  9
$UCSORGTOP
 10
0.0
 20
0.0
 30
0.0
  9
$UCSORGBOTTOM
 10
0.0
 20
0.0
 30
0.0
  9
$UCSORGLEFT
 10
0.0
 20
0.0
 30
0.0
  9
$UCSORGRIGHT
 10
0.0
 20
0.0
 30
0.0
  9
$UCSORGFRONT
 10
0.0
 20
0.0
 30
0.0
  9
$UCSORGBACK
 10
0.0
 20
0.0
 30
0.0
  9
$PUCSBASE
  2

  9
$PUCSNAME
  2

  9
$PUCSORG
 10
0.0
 20
0.0
 30
0.0
  9
$PUCSXDIR
 10
1.0
 20
0.0
 30
0.0
  9
$PUCSYDIR
 10
0.0
 20
1.0
 30
0.0
  9
$PUCSORTHOREF
  2

  9
$PUCSORTHOVIEW
 70
     0
  9
$PUCSORGTOP
 10
0.0
 20
0.0
 30
0.0
  9
$PUCSORGBOTTOM
 10
0.0
 20
0.0
 30
0.0
  9
$PUCSORGLEFT
 10
0.0
 20
0.0
 30
0.0
  9
$PUCSORGRIGHT
 10
0.0
 20
0.0
 30
0.0
  9
$PUCSORGFRONT
 10
0.0
 20
0.0
 30
0.0
  9
$PUCSORGBACK
 10
0.0
 20
0.0
 30
0.0
  9
$USERI1
 70
     0
  9
$USERI2
 70
     0
  9
$USERI3
 70
     0
  9
$USERI4
 70
     0
  9
$USERI5
 70
     0
  9
$USERR1
 40
0.0
  9
$USERR2
 40
0.0
  9
$USERR3
 40
0.0
  9
$USERR4
 40
0.0
  9
$USERR5
 40
0.0
  9
$WORLDVIEW
 70
     1
  9
$SHADEDGE
 70
     3
  9
$SHADEDIF
 70
    70
  9
$TILEMODE
 70
     1
  9
$MAXACTVP
 70
    64
  9
$PINSBASE
 10
0.0
 20
0.0
 30
0.0
  9
$PLIMCHECK
 70
     0
  9
$PEXTMIN
 10
1.0000000000E+20
 20
1.0000000000E+20
 30
1.0000000000E+20
  9
$PEXTMAX
 10
-1.0000000000E+20
 20
-1.0000000000E+20
 30
-1.0000000000E+20
  9
$PLIMMIN
 10
0.0
 20
0.0
  9
$PLIMMAX
 10
420.0
 20
297.0
  9
$UNITMODE
 70
     0
  9
$VISRETAIN
 70
     1
  9
$PLINEGEN
 70
     0
  9
$PSLTSCALE
 70
     1
  9
$TREEDEPTH
 70
  3020
  9
$CMLSTYLE
  2
Standard
  9
$CMLJUST
 70
     0
  9
$CMLSCALE
 40
20.0
  9
$PROXYGRAPHICS
 70
     1
  9
$MEASUREMENT
 70
     1
  9
$CELWEIGHT
370
    -1
  9
$ENDCAPS
280
     0
  9
$JOINSTYLE
280
     0
  9
$LWDISPLAY
290
     1
  9
$INSUNITS
 70
     4
  9
$HYPERLINKBASE
  1

  9
$STYLESHEET
  1

  9
$XEDIT
290
     1
  9
$CEPSNTYPE
380
     0
  9
$PSTYLEMODE
290
     1
  9
$FINGERPRINTGUID
  2
{14D7EEA9-620D-459A-ADDE-9C5853A9CA8D}
  9
$VERSIONGUID
  2
{FAEB1C32-E019-11D5-929B-00C0DF256EC4}
  9
$EXTNAMES
290
     1
  9
$PSVPSCALE
 40
0.0
  9
$OLESTARTUP
290
     0
  0
ENDSEC
  0
SECTION
  2
CLASSES
  0
CLASS
  1
ACDBDICTIONARYWDFLT
  2
AcDbDictionaryWithDefault
  3
ObjectDBX Classes
 90
        0
280
     0
281
     0
  0
CLASS
  1
ACDBPLACEHOLDER
  2
AcDbPlaceHolder
  3
ObjectDBX Classes
 90
        0
280
     0
281
     0
  0
CLASS
  1
LAYOUT
  2
AcDbLayout
  3
ObjectDBX Classes
 90
        0
280
     0
281
     0
  0
ENDSEC
  0
SECTION
  2
TABLES
  0
TABLE
  2
VPORT
  5
8
330
0
100
AcDbSymbolTable
 70
     1
  0
VPORT
  5
29
330
8
100
AcDbSymbolTableRecord
100
AcDbViewportTableRecord
  2
*Active
 70
     0
 10
0.0
 20
0.0
 11
1.0
 21
1.0
 12
210.0
 22
148.5
 13
0.0
 23
0.0
 14
10.0
 24
10.0
 15
10.0
 25
10.0
 16
0.0
 26
0.0
 36
1.0
 17
0.0
 27
0.0
 37
0.0
 40
297.0
 41
1.9729729729
 42
50.0
 43
0.0
 44
0.0
 50
0.0
 51
0.0
 71
     0
 72
  2000
 73
     1
 74
     3
 75
     0
 76
     0
 77
     0
 78
     0
281
     0
 65
     1
110
0.0
120
0.0
130
0.0
111
1.0
121
0.0
131
0.0
112
0.0
122
1.0
132
0.0
 79
     0
146
0.0
  0
ENDTAB
  0
TABLE
  2
LTYPE
  5
5
330
0
100
AcDbSymbolTable
 70
     6
  0
LTYPE
  5
14
330
5
100
AcDbSymbolTableRecord
100
AcDbLinetypeTableRecord
  2
ByBlock
 70
     0
  3

 72
    65
 73
     0
 40
0.0
  0
LTYPE
  5
15
330
5
100
AcDbSymbolTableRecord
100
AcDbLinetypeTableRecord
  2
ByLayer
 70
     0
  3

 72
    65
 73
     0
 40
0.0
  0
LTYPE
  5
16
330
5
100
AcDbSymbolTableRecord
100
AcDbLinetypeTableRecord
  2
Continuous
 70
     0
  3
Solid line
 72
    65
 73
     0
 40
0.0
  0
LTYPE
  5
2A
330
5
100
AcDbSymbolTableRecord
100
AcDbLinetypeTableRecord
  2
HIDDEN
 70
     0
  3
Hidden __ __ __ __ __ __ __ __ __ __ __ __ __ __
 72
    65
 73
     2
 40
1.905
 49
1.27
 74
     0
 49
-0.635
 74
     0
  0
LTYPE
  5
2B
330
5
100
AcDbSymbolTableRecord
100
AcDbLinetypeTableRecord
  2
PHANTOM
 70
     0
  3
Phantom ______  __  __  ______  __  __  ______
 72
    65
 73
     6
 40
12.7
 49
6.35
 74
     0
 49
-1.27
 74
     0
 49
1.27
 74
     0
 49
-1.27
 74
     0
 49
1.27
 74
     0
 49
-1.27
 74
     0
  0
LTYPE
  5
2C
330
5
100
AcDbSymbolTableRecord
100
AcDbLinetypeTableRecord
  2
CENTER
 70
     0
  3
Center ____ _ ____ _ ____ _ ____ _ ____ _ ____
 72
    65
 73
     4
 40
10.16
 49
6.35
 74
     0
 49
-1.27
 74
     0
 49
1.27
 74
     0
 49
-1.27
 74
     0
  0
LTYPE
  5
2D
330
5
100
AcDbSymbolTableRecord
100
AcDbLinetypeTableRecord
  2
CENTERX2
 70
     0
  3
Center (2x) ________  __  ________  __  _____
 72
    65
 73
     4
 40
20.32
 49
12.7
 74
     0
 49
-2.54
 74
     0
 49
2.54
 74
     0
 49
-2.54
 74
     0
  0
LTYPE
  5
2E
330
5
100
AcDbSymbolTableRecord
100
AcDbLinetypeTableRecord
  2
DOT2
 70
     0
  3
Dot (.5x) ........................................
 72
    65
 73
     2
 40
0.635
 49
0.0
 74
     0
 49
-0.635
 74
     0
  0
ENDTAB
  0
TABLE
  2
LAYER
  5
2
330
0
100
AcDbSymbolTable
 70
     2
  0
LAYER
  5
10
330
2
100
AcDbSymbolTableRecord
100
AcDbLayerTableRecord
  2
0
 70
     0
 62
     7
  6
Continuous
370
    -3
390
F
  0
LAYER
  5
2F
330
2
100
AcDbSymbolTableRecord
100
AcDbLayerTableRecord
  2
SLD-0
 70
     0
 62
   179
  6
Continuous
370
     0
390
F
  0
ENDTAB
  0
TABLE
  2
STYLE
  5
3
330
0
100
AcDbSymbolTable
 70
     9
  0
STYLE
  5
11
330
3
100
AcDbSymbolTableRecord
100
AcDbTextStyleTableRecord
  2
Standard
 70
     0
 40
0.0
 41
1.0
 50
0.0
 71
     0
 42
2.5
  3
txt
  4
bigfont
  0
STYLE
  5
38
330
3
100
AcDbSymbolTableRecord
100
AcDbTextStyleTableRecord
  2
SLDTEXTSTYLE0
 70
     0
 40
0.0
 41
0.6236261537
 50
0.0
 71
     0
 42
0.2
  3
TXT
  4
bigfont
  0
STYLE
  5
4B
330
3
100
AcDbSymbolTableRecord
100
AcDbTextStyleTableRecord
  2
SLDTEXTSTYLE1
 70
     0
 40
0.0
 41
0.6255252021
 50
0.0
 71
     0
 42
0.2
  3
TXT
  4
bigfont
  0
STYLE
  5
341
330
3
100
AcDbSymbolTableRecord
100
AcDbTextStyleTableRecord
  2
SLDTEXTSTYLE2
 70
     0
 40
0.0
 41
0.6217270684
 50
0.0
 71
     0
 42
0.2
  3
TXT
  4
bigfont
  0
STYLE
  5
343
330
3
100
AcDbSymbolTableRecord
100
AcDbTextStyleTableRecord
  2
SLDTEXTSTYLE3
 70
     0
 40
0.0
 41
0.6217270389
 50
0.0
 71
     0
 42
0.2
  3
TXT
  4
bigfont
  0
STYLE
  5
345
330
3
100
AcDbSymbolTableRecord
100
AcDbTextStyleTableRecord
  2
SLDTEXTSTYLE4
 70
     0
 40
0.0
 41
0.6230481453
 50
0.0
 71
     0
 42
0.2
  3
TXT
  4
bigfont
  0
STYLE
  5
347
330
3
100
AcDbSymbolTableRecord
100
AcDbTextStyleTableRecord
  2
SLDTEXTSTYLE5
 70
     0
 40
0.0
 41
0.6244080758
 50
0.0
 71
     0
 42
0.2
  3
TXT
  4
bigfont
  0
STYLE
  5
349
330
3
100
AcDbSymbolTableRecord
100
AcDbTextStyleTableRecord
  2
SLDTEXTSTYLE6
 70
     0
 40
0.0
 41
0.6302728232
 50
0.0
 71
     0
 42
0.2
  3
TXT
  4
bigfont
  0
STYLE
  5
34B
330
3
100
AcDbSymbolTableRecord
100
AcDbTextStyleTableRecord
  2
SLDTEXTSTYLE7
 70
     0
 40
0.0
 41
0.6272516084
 50
0.0
 71
     0
 42
0.2
  3
TXT
  4
bigfont
  0
ENDTAB
  0
TABLE
  2
VIEW
  5
6
330
0
100
AcDbSymbolTable
 70
     0
  0
ENDTAB
  0
TABLE
  2
UCS
  5
7
330
0
100
AcDbSymbolTable
 70
     0
  0
ENDTAB
  0
TABLE
  2
APPID
  5
9
330
0
100
AcDbSymbolTable
 70
     1
  0
APPID
  5
12
330
9
100
AcDbSymbolTableRecord
100
AcDbRegAppTableRecord
  2
ACAD
 70
     0
  0
ENDTAB
  0
TABLE
  2
DIMSTYLE
  5
A
330
0
100
AcDbSymbolTable
 70
     1
100
AcDbDimStyleTable
  0
DIMSTYLE
105
27
330
A
100
AcDbSymbolTableRecord
100
AcDbDimStyleTableRecord
  2
ISO-25
 70
     0
 41
2.5
 42
0.625
 43
3.75
 44
1.25
 73
     0
 74
     0
 77
     1
 78
     8
140
2.5
141
2.5
143
0.0393700787
147
0.625
171
     3
172
     1
271
     2
272
     2
274
     3
278
    44
283
     0
284
     8
340
11
  0
ENDTAB
  0
TABLE
  2
BLOCK_RECORD
  5
1
330
0
100
AcDbSymbolTable
 70
     4
  0
BLOCK_RECORD
  5
1F
330
1
100
AcDbSymbolTableRecord
100
AcDbBlockTableRecord
  2
*Model_Space
340
22
  0
BLOCK_RECORD
  5
1B
330
1
100
AcDbSymbolTableRecord
100
AcDbBlockTableRecord
  2
*Paper_Space
340
1E
  0
BLOCK_RECORD
  5
23
330
1
100
AcDbSymbolTableRecord
100
AcDbBlockTableRecord
  2
*Paper_Space0
340
26
  0
BLOCK_RECORD
  5
30
330
1
100
AcDbSymbolTableRecord
100
AcDbBlockTableRecord
  2
KOZU0001
340
0
102
{BLKREFS
331
34D
102
}
  0
BLOCK_RECORD
  5
3A
330
1
100
AcDbSymbolTableRecord
100
AcDbBlockTableRecord
  2
KOZU0002
340
0
102
{BLKREFS
331
34E
102
}
  0
BLOCK_RECORD
  5
43
330
1
100
AcDbSymbolTableRecord
100
AcDbBlockTableRecord
  2
KOZU0003
340
0
102
{BLKREFS
331
34F
102
}
  0
ENDTAB
  0
ENDSEC
  0
SECTION
  2
BLOCKS
  0
BLOCK
  5
20
330
1F
100
AcDbEntity
  8
0
100
AcDbBlockBegin
  2
*Model_Space
 70
     0
 71
     0
 10
0.0
 20
0.0
 30
0.0
  3
*Model_Space
  1

  0
ENDBLK
  5
21
330
1F
100
AcDbEntity
  8
0
100
AcDbBlockEnd
  0
BLOCK
  5
1C
330
1B
100
AcDbEntity
 67
     1
  8
0
100
AcDbBlockBegin
  2
*Paper_Space
 70
     0
 71
     0
 10
0.0
 20
0.0
 30
0.0
  3
*Paper_Space
  1

  0
ENDBLK
  5
1D
330
1B
100
AcDbEntity
 67
     1
  8
0
100
AcDbBlockEnd
  0
BLOCK
  5
24
330
23
100
AcDbEntity
  8
0
100
AcDbBlockBegin
  2
*Paper_Space0
 70
     0
 71
     0
 10
0.0
 20
0.0
 30
0.0
  3
*Paper_Space0
  1

  0
ENDBLK
  5
25
330
23
100
AcDbEntity
  8
0
100
AcDbBlockEnd
  0
BLOCK
  5
31
330
30
100
AcDbEntity
  8
0
100
AcDbBlockBegin
  2
KOZU0001
 70
     0
 71
     0
 10
0.0
 20
0.0
 30
0.0
  3
KOZU0001
  1

  0
LINE
  5
33
330
30
100
AcDbEntity
  8
SLD-0
  6
Continuous
 62
   179
100
AcDbLine
 10
0.0
 20
0.0
 30
0.0
 11
-12.591125
 21
32.217402
 31
0.0
  0
LINE
  5
34
330
30
100
AcDbEntity
  8
SLD-0
  6
Continuous
 62
   179
100
AcDbLine
 10
0.0
 20
0.0
 30
0.0
 11
-2.0234149
 21
2.4301835
 31
0.0
  0
LINE
  5
35
330
30
100
AcDbEntity
  8
SLD-0
  6
Continuous
 62
   179
100
AcDbLine
 10
0.0
 20
0.0
 30
0.0
 11
-0.16062176
 21
3.1581957
 31
0.0
  0
LINE
  5
36
330
30
100
AcDbEntity
  8
SLD-0
  6
Continuous
 62
   179
100
AcDbLine
 10
0.0
 20
0.0
 30
0.0
 11
-12.591125
 21
32.217402
 31
0.0
  0
LINE
  5
37
330
30
100
AcDbEntity
  8
SLD-0
  6
Continuous
 62
   179
100
AcDbLine
 10
-12.591129
 20
32.217413
 30
0.0
 11
-39.697544
 21
32.217413
 31
0.0
  0
MTEXT
  5
39
330
30
100
AcDbEntity
  8
SLD-0
100
AcDbMText
 10
-37.869517
 20
35.6721325369
 30
0.0
 40
3.2
 41
0.0
 71
     1
 72
     1
  1
センサー取付穴
  7
SLDTEXTSTYLE0
 73
     1
 44
1.0
  0
ENDBLK
  5
32
330
30
100
AcDbEntity
  8
0
100
AcDbBlockEnd
  0
BLOCK
  5
3B
330
3A
100
AcDbEntity
  8
0
100
AcDbBlockBegin
  2
KOZU0002
 70
     0
 71
     0
 10
0.0
 20
0.0
 30
0.0
  3
KOZU0002
  1

  0
LINE
  5
3D
330
3A
100
AcDbEntity
  8
SLD-0
  6
Continuous
 62
   179
100
AcDbLine
 10
0.0
 20
0.0
 30
0.0
 11
11.992567
 21
22.004797
 31
0.0
  0
LINE
  5
3E
330
3A
100
AcDbEntity
  8
SLD-0
  6
Continuous
 62
   179
100
AcDbLine
 10
0.0
 20
0.0
 30
0.0
 11
0.55756502
 21
3.1127353
 31
0.0
  0
LINE
  5
3F
330
3A
100
AcDbEntity
  8
SLD-0
  6
Continuous
 62
   179
100
AcDbLine
 10
0.0
 20
0.0
 30
0.0
 11
2.3136932
 21
2.1556492
 31
0.0
  0
LINE
  5
40
330
3A
100
AcDbEntity
  8
SLD-0
  6
Continuous
 62
   179
100
AcDbLine
 10
0.0
 20
0.0
 30
0.0
 11
11.992567
 21
22.004797
 31
0.0
  0
LINE
  5
41
330
3A
100
AcDbEntity
  8
SLD-0
  6
Continuous
 62
   179
100
AcDbLine
 10
11.992556
 20
22.004802
 30
0.0
 11
36.221651
 21
22.004802
 31
0.0
  0
MTEXT
  5
42
330
3A
100
AcDbEntity
  8
SLD-0
100
AcDbMText
 10
12.907563
 20
25.4595215369
 30
0.0
 40
3.2
 41
0.0
 71
     1
 72
     1
  1
ヒーター取付穴
  7
SLDTEXTSTYLE0
 73
     1
 44
1.0
  0
ENDBLK
  5
3C
330
3A
100
AcDbEntity
  8
0
100
AcDbBlockEnd
  0
BLOCK
  5
44
330
43
100
AcDbEntity
  8
0
100
AcDbBlockBegin
  2
KOZU0003
 70
     0
 71
     0
 10
0.0
 20
0.0
 30
0.0
  3
KOZU0003
  1

  0
LINE
  5
46
330
43
100
AcDbEntity
  8
SLD-0
  6
Continuous
 62
   179
100
AcDbLine
 10
0.0
 20
0.0
 30
0.0
 11
9.0480333
 21
18.096067
 31
0.0
  0
LINE
  5
47
330
43
100
AcDbEntity
  8
SLD-0
  6
Continuous
 62
   179
100
AcDbLine
 10
0.0
 20
0.0
 30
0.0
 11
0.44721359
 21
3.1304951
 31
0.0
  0
LINE
  5
48
330
43
100
AcDbEntity
  8
SLD-0
  6
Continuous
 62
   179
100
AcDbLine
 10
0.0
 20
0.0
 30
0.0
 11
2.2360679
 21
2.2360679
 31
0.0
  0
LINE
  5
49
330
43
100
AcDbEntity
  8
SLD-0
  6
Continuous
 62
   179
100
AcDbLine
 10
0.0
 20
0.0
 30
0.0
 11
9.0480333
 21
18.096067
 31
0.0
  0
LINE
  5
4A
330
43
100
AcDbEntity
  8
SLD-0
  6
Continuous
 62
   179
100
AcDbLine
 10
9.0480479
 20
18.096063
 30
0.0
 11
33.277143
 21
18.096063
 31
0.0
  0
MTEXT
  5
4C
330
43
100
AcDbEntity
  8
SLD-0
100
AcDbMText
 10
10.403851
 20
21.5507825369
 30
0.0
 40
3.2
 41
0.0
 71
     1
 72
     1
  1
ブラケット
  7
SLDTEXTSTYLE1
 73
     1
 44
1.0
  0
MTEXT
  5
4D
330
43
100
AcDbEntity
  8
SLD-0
100
AcDbMText
 10
10.403851
 20
15.9347825369
 30
0.0
 40
3.2
 41
0.0
 71
     1
 72
     1
  1
（オプション）
  7
SLDTEXTSTYLE0
 73
     1
 44
1.0
  0
ENDBLK
  5
45
330
43
100
AcDbEntity
  8
0
100
AcDbBlockEnd
  0
ENDSEC
  0
SECTION
  2
ENTITIES
  0
LINE
  5
4E
330
1F
100
AcDbEntity
  8
SLD-0
  6
CENTER
 62
   179
100
AcDbLine
 10
99.97672
 20
78.44101
 30
0.0
 11
99.97672
 21
86.741013
 31
0.0
  0
LINE
  5
4F
330
1F
100
AcDbEntity
  8
SLD-0
  6
CENTER
 62
   179
100
AcDbLine
 10
95.82672
 20
82.591011
 30
0.0
 11
104.12671
 21
82.591011
 31
0.0
  0
LINE
  5
50
330
1F
100
AcDbEntity
  8
SLD-0
  6
Continuous
 62
   179
100
AcDbLine
 10
54.97672
 20
85.591011
 30
0.0
 11
54.97672
 21
78.591011
 31
0.0
  0
LINE
  5
51
330
1F
100
AcDbEntity
  8
SLD-0
  6
Continuous
 62
   179
100
AcDbLine
 10
60.45044
 20
85.591
 30
0.0
 11
69.97672
 21
80.091
 31
0.0
  0
LINE
  5
52
330
1F
100
AcDbEntity
  8
SLD-0
  6
Continuous
 62
   179
100
AcDbLine
 10
71.47672
 20
85.591011
 30
0.0
 11
71.47672
 21
78.591011
 31
0.0
  0
LINE
  5
53
330
1F
100
AcDbEntity
  8
SLD-0
  6
Continuous
 62
   179
100
AcDbLine
 10
103.97671
 20
188.50042
 30
0.0
 11
99.97671
 21
190.80982
 31
0.0
  0
LINE
  5
54
330
1F
100
AcDbEntity
  8
SLD-0
  6
Continuous
 62
   179
100
AcDbLine
 10
99.97671
 20
190.8098
 30
0.0
 11
95.97671
 21
188.5004
 31
0.0
  0
LINE
  5
55
330
1F
100
AcDbEntity
  8
SLD-0
  6
Continuous
 62
   179
100
AcDbLine
 10
95.97671
 20
188.5004
 30
0.0
 11
95.97672
 21
183.88161
 31
0.0
  0
LINE
  5
56
330
1F
100
AcDbEntity
  8
SLD-0
  6
Continuous
 62
   179
100
AcDbLine
 10
95.97672
 20
183.88161
 30
0.0
 11
99.97671
 21
181.57222
 31
0.0
  0
LINE
  5
57
330
1F
100
AcDbEntity
  8
SLD-0
  6
Continuous
 62
   179
100
AcDbLine
 10
99.97671
 20
181.5722
 30
0.0
 11
103.97671
 21
183.8816
 31
0.0
  0
LINE
  5
58
330
1F
100
AcDbEntity
  8
SLD-0
  6
Continuous
 62
   179
100
AcDbLine
 10
103.97671
 20
183.8816
 30
0.0
 11
103.97672
 21
188.50041
 31
0.0
  0
LINE
  5
59
330
1F
100
AcDbEntity
  8
SLD-0
  6
CENTER
 62
   179
100
AcDbLine
 10
99.97672
 20
180.5722
 30
0.0
 11
99.97672
 21
191.80981
 31
0.0
  0
LINE
  5
5A
330
1F
100
AcDbEntity
  8
SLD-0
  6
CENTER
 62
   179
100
AcDbLine
 10
94.97672
 20
186.19101
 30
0.0
 11
104.97672
 21
186.19101
 31
0.0
  0
LINE
  5
5B
330
1F
100
AcDbEntity
  8
SLD-0
  6
Continuous
 62
   179
100
AcDbLine
 10
93.97672
 20
191.19101
 30
0.0
 11
92.97672
 21
190.19101
 31
0.0
  0
LINE
  5
5C
330
1F
100
AcDbEntity
  8
SLD-0
  6
Continuous
 62
   179
100
AcDbLine
 10
93.97672
 20
156.191
 30
0.0
 11
92.97672
 21
157.191
 31
0.0
  0
LINE
  5
5D
330
1F
100
AcDbEntity
  8
SLD-0
  6
Continuous
 62
   179
100
AcDbLine
 10
105.97672
 20
156.19101
 30
0.0
 11
93.97672
 21
156.19101
 31
0.0
  0
LINE
  5
5E
330
1F
100
AcDbEntity
  8
SLD-0
  6
Continuous
 62
   179
100
AcDbLine
 10
105.97672
 20
191.19101
 30
0.0
 11
93.97672
 21
191.19101
 31
0.0
  0
LINE
  5
5F
330
1F
100
AcDbEntity
  8
SLD-0
  6
Continuous
 62
   179
100
AcDbLine
 10
106.97672
 20
190.19101
 30
0.0
 11
106.97672
 21
157.19101
 31
0.0
  0
LINE
  5
60
330
1F
100
AcDbEntity
  8
SLD-0
  6
Continuous
 62
   179
100
AcDbLine
 10
92.97672
 20
190.19101
 30
0.0
 11
92.97672
 21
157.19101
 31
0.0
  0
LINE
  5
61
330
1F
100
AcDbEntity
  8
SLD-0
  6
Continuous
 62
   179
100
AcDbLine
 10
81.97672
 20
184.49101
 30
0.0
 11
92.97672
 21
184.49101
 31
0.0
  0
LINE
  5
62
330
1F
100
AcDbEntity
  8
SLD-0
  6
Continuous
 62
   179
100
AcDbLine
 10
81.97672
 20
184.49101
 30
0.0
 11
81.97672
 21
179.341
 31
0.0
  0
LINE
  5
63
330
1F
100
AcDbEntity
  8
SLD-0
  6
Continuous
 62
   179
100
AcDbLine
 10
81.97672
 20
174.19101
 30
0.0
 11
81.97672
 21
179.341
 31
0.0
  0
LINE
  5
64
330
1F
100
AcDbEntity
  8
SLD-0
  6
Continuous
 62
   179
100
AcDbLine
 10
81.97672
 20
174.19101
 30
0.0
 11
92.97672
 21
174.19101
 31
0.0
  0
LINE
  5
65
330
1F
100
AcDbEntity
  8
SLD-0
  6
Continuous
 62
   179
100
AcDbLine
 10
65.36903
 20
203.091
 30
0.0
 11
54.97672
 21
197.091
 31
0.0
  0
LINE
  5
66
330
1F
100
AcDbEntity
  8
SLD-0
  6
Continuous
 62
   179
100
AcDbLine
 10
54.97672
 20
174.591
 30
0.0
 11
54.97672
 21
197.091
 31
0.0
  0
LINE
  5
67
330
1F
100
AcDbEntity
  8
SLD-0
  6
Continuous
 62
   179
100
AcDbLine
 10
71.47672
 20
185.45703
 30
0.0
 11
71.47672
 21
190.091
 31
0.0
  0
LINE
  5
68
330
1F
100
AcDbEntity
  8
SLD-0
  6
Continuous
 62
   179
100
AcDbLine
 10
56.97671
 20
172.59101
 30
0.0
 11
54.97672
 21
174.591
 31
0.0
  0
LINE
  5
69
330
1F
100
AcDbEntity
  8
SLD-0
  6
Continuous
 62
   179
100
AcDbLine
 10
71.47672
 20
185.45703
 30
0.0
 11
69.97671
 21
184.59101
 31
0.0
  0
LINE
  5
6A
330
1F
100
AcDbEntity
  8
SLD-0
  6
Continuous
 62
   179
100
AcDbLine
 10
118.97672
 20
201.091
 30
0.0
 11
118.97672
 21
198.091
 31
0.0
  0
LINE
  5
6B
330
1F
100
AcDbEntity
  8
SLD-0
  6
Continuous
 62
   179
100
AcDbLine
 10
111.97672
 20
187.091
 30
0.0
 11
111.97672
 21
190.091
 31
0.0
  0
LINE
  5
6C
330
1F
100
AcDbEntity
  8
SLD-0
  6
Continuous
 62
   179
100
AcDbLine
 10
112.97671
 20
186.09102
 30
0.0
 11
111.9767
 21
187.09102
 31
0.0
  0
LINE
  5
6D
330
1F
100
AcDbEntity
  8
SLD-0
  6
Continuous
 62
   179
100
AcDbLine
 10
58.54517
 20
184.591
 30
0.0
 11
58.54517
 21
174.091
 31
0.0
  0
LINE
  5
6E
330
1F
100
AcDbEntity
  8
SLD-0
  6
Continuous
 62
   179
100
AcDbLine
 10
116.97671
 20
203.09101
 30
0.0
 11
118.97672
 21
201.091
 31
0.0
  0
LINE
  5
6F
330
1F
100
AcDbEntity
  8
SLD-0
  6
Continuous
 62
   179
100
AcDbLine
 10
65.36902
 20
203.091
 30
0.0
 11
116.97672
 21
203.091
 31
0.0
  0
LINE
  5
70
330
1F
100
AcDbEntity
  8
SLD-0
  6
Continuous
 62
   179
100
AcDbLine
 10
58.54517
 20
184.591
 30
0.0
 11
69.97672
 21
184.591
 31
0.0
  0
LINE
  5
71
330
1F
100
AcDbEntity
  8
SLD-0
  6
Continuous
 62
   179
100
AcDbLine
 10
58.54517
 20
174.091
 30
0.0
 11
69.97672
 21
174.091
 31
0.0
  0
LINE
  5
72
330
1F
100
AcDbEntity
  8
SLD-0
  6
Continuous
 62
   179
100
AcDbLine
 10
61.95044
 20
186.091
 30
0.0
 11
71.47672
 21
186.091
 31
0.0
  0
LINE
  5
73
330
1F
100
AcDbEntity
  8
SLD-0
  6
Continuous
 62
   179
100
AcDbLine
 10
61.95044
 20
184.591
 30
0.0
 11
61.95044
 21
186.091
 31
0.0
  0
LINE
  5
74
330
1F
100
AcDbEntity
  8
SLD-0
  6
Continuous
 62
   179
100
AcDbLine
 10
61.95044
 20
172.591
 30
0.0
 11
61.95044
 21
174.091
 31
0.0
  0
LINE
  5
75
330
1F
100
AcDbEntity
  8
SLD-0
  6
Continuous
 62
   179
100
AcDbLine
 10
74.47672
 20
193.091
 30
0.0
 11
108.97672
 21
193.091
 31
0.0
  0
LINE
  5
76
330
1F
100
AcDbEntity
  8
SLD-0
  6
Continuous
 62
   179
100
AcDbLine
 10
69.97672
 20
172.591
 30
0.0
 11
69.97672
 21
184.591
 31
0.0
  0
LINE
  5
77
330
1F
100
AcDbEntity
  8
SLD-0
  6
Continuous
 62
   179
100
AcDbLine
 10
196.97672
 20
99.078405
 30
0.0
 11
193.00513
 21
99.077712
 31
0.0
  0
LINE
  5
78
330
1F
100
AcDbEntity
  8
SLD-0
  6
Continuous
 62
   179
100
AcDbLine
 10
192.97672
 20
98.315109
 30
0.0
 11
196.97672
 21
98.315109
 31
0.0
  0
LINE
  5
79
330
1F
100
AcDbEntity
  8
SLD-0
  6
Continuous
 62
   179
100
AcDbLine
 10
196.97672
 20
97.551804
 30
0.0
 11
192.97672
 21
97.551804
 31
0.0
  0
LINE
  5
7A
330
1F
100
AcDbEntity
  8
SLD-0
  6
Continuous
 62
   179
100
AcDbLine
 10
192.97672
 20
96.788506
 30
0.0
 11
196.97672
 21
96.788506
 31
0.0
  0
LINE
  5
7B
330
1F
100
AcDbEntity
  8
SLD-0
  6
Continuous
 62
   179
100
AcDbLine
 10
196.97672
 20
96.025208
 30
0.0
 11
192.97672
 21
96.025208
 31
0.0
  0
LINE
  5
7C
330
1F
100
AcDbEntity
  8
SLD-0
  6
Continuous
 62
   179
100
AcDbLine
 10
192.97672
 20
95.261909
 30
0.0
 11
196.97672
 21
95.261909
 31
0.0
  0
LINE
  5
7D
330
1F
100
AcDbEntity
  8
SLD-0
  6
Continuous
 62
   179
100
AcDbLine
 10
196.97672
 20
94.498604
 30
0.0
 11
192.97672
 21
94.498604
 31
0.0
  0
LINE
  5
7E
330
1F
100
AcDbEntity
  8
SLD-0
  6
Continuous
 62
   179
100
AcDbLine
 10
192.97672
 20
93.735306
 30
0.0
 11
196.97672
 21
93.735306
 31
0.0
  0
LINE
  5
7F
330
1F
100
AcDbEntity
  8
SLD-0
  6
Continuous
 62
   179
100
AcDbLine
 10
196.97672
 20
92.972008
 30
0.0
 11
192.97672
 21
92.972008
 31
0.0
  0
LINE
  5
80
330
1F
100
AcDbEntity
  8
SLD-0
  6
Continuous
 62
   179
100
AcDbLine
 10
192.9856
 20
92.20801
 30
0.0
 11
196.97672
 21
92.208707
 31
0.0
  0
LINE
  5
81
330
1F
100
AcDbEntity
  8
SLD-0
  6
Continuous
 62
   179
100
AcDbLine
 10
196.97672
 20
91.44541
 30
0.0
 11
193.53307
 21
91.444809
 31
0.0
  0
LINE
  5
82
330
1F
100
AcDbEntity
  8
SLD-0
  6
Continuous
 62
   179
100
AcDbLine
 10
120.97671
 20
90.591009
 30
0.0
 11
119.97671
 21
89.591008
 31
0.0
  0
LINE
  5
83
330
1F
100
AcDbEntity
  8
SLD-0
  6
Continuous
 62
   179
100
AcDbLine
 10
193.97672
 20
72.841007
 30
0.0
 11
197.97672
 21
72.841007
 31
0.0
  0
LINE
  5
84
330
1F
100
AcDbEntity
  8
SLD-0
  6
Continuous
 62
   179
100
AcDbLine
 10
197.97672
 20
64.341007
 30
0.0
 11
193.97672
 21
64.341007
 31
0.0
  0
LINE
  5
85
330
1F
100
AcDbEntity
  8
SLD-0
  6
Continuous
 62
   179
100
AcDbLine
 10
192.97672
 20
65.341007
 30
0.0
 11
192.97672
 21
71.841007
 31
0.0
  0
LINE
  5
86
330
1F
100
AcDbEntity
  8
SLD-0
  6
Continuous
 62
   179
100
AcDbLine
 10
196.97672
 20
64.341007
 30
0.0
 11
196.97672
 21
72.841007
 31
0.0
  0
LINE
  5
87
330
1F
100
AcDbEntity
  8
SLD-0
  6
CENTER
 62
   179
100
AcDbLine
 10
288.97672
 20
82.091011
 30
0.0
 11
119.97672
 21
82.091011
 31
0.0
  0
LINE
  5
88
330
1F
100
AcDbEntity
  8
SLD-0
  6
Continuous
 62
   179
100
AcDbLine
 10
196.97672
 20
72.078408
 30
0.0
 11
193.00513
 21
72.077715
 31
0.0
  0
LINE
  5
89
330
1F
100
AcDbEntity
  8
SLD-0
  6
Continuous
 62
   179
100
AcDbLine
 10
192.97672
 20
71.315105
 30
0.0
 11
196.97672
 21
71.315105
 31
0.0
  0
LINE
  5
8A
330
1F
100
AcDbEntity
  8
SLD-0
  6
Continuous
 62
   179
100
AcDbLine
 10
196.97672
 20
70.551807
 30
0.0
 11
192.97672
 21
70.551807
 31
0.0
  0
LINE
  5
8B
330
1F
100
AcDbEntity
  8
SLD-0
  6
Continuous
 62
   179
100
AcDbLine
 10
192.97672
 20
69.788506
 30
0.0
 11
196.97672
 21
69.788506
 31
0.0
  0
LINE
  5
8C
330
1F
100
AcDbEntity
  8
SLD-0
  6
Continuous
 62
   179
100
AcDbLine
 10
196.97672
 20
69.025208
 30
0.0
 11
192.97672
 21
69.025208
 31
0.0
  0
LINE
  5
8D
330
1F
100
AcDbEntity
  8
SLD-0
  6
Continuous
 62
   179
100
AcDbLine
 10
192.97672
 20
68.261906
 30
0.0
 11
196.97672
 21
68.261906
 31
0.0
  0
LINE
  5
8E
330
1F
100
AcDbEntity
  8
SLD-0
  6
Continuous
 62
   179
100
AcDbLine
 10
196.97672
 20
67.498608
 30
0.0
 11
192.97672
 21
67.498608
 31
0.0
  0
LINE
  5
8F
330
1F
100
AcDbEntity
  8
SLD-0
  6
Continuous
 62
   179
100
AcDbLine
 10
192.97672
 20
66.735306
 30
0.0
 11
196.97672
 21
66.735306
 31
0.0
  0
LINE
  5
90
330
1F
100
AcDbEntity
  8
SLD-0
  6
Continuous
 62
   179
100
AcDbLine
 10
196.97672
 20
65.972008
 30
0.0
 11
192.97672
 21
65.972008
 31
0.0
  0
LINE
  5
91
330
1F
100
AcDbEntity
  8
SLD-0
  6
Continuous
 62
   179
100
AcDbLine
 10
192.9856
 20
65.20801
 30
0.0
 11
196.97672
 21
65.208707
 31
0.0
  0
LINE
  5
92
330
1F
100
AcDbEntity
  8
SLD-0
  6
Continuous
 62
   179
100
AcDbLine
 10
196.97672
 20
64.445406
 30
0.0
 11
193.53307
 21
64.444805
 31
0.0
  0
LINE
  5
93
330
1F
100
AcDbEntity
  8
SLD-0
  6
Continuous
 62
   179
100
AcDbLine
 10
194.97672
 20
64.091007
 30
0.0
 11
194.97672
 21
64.341007
 31
0.0
  0
LINE
  5
94
330
1F
100
AcDbEntity
  8
SLD-0
  6
Continuous
 62
   179
100
AcDbLine
 10
194.97672
 20
72.841007
 30
0.0
 11
194.97672
 21
73.591007
 31
0.0
  0
LINE
  5
95
330
1F
100
AcDbEntity
  8
SLD-0
  6
Continuous
 62
   179
100
AcDbLine
 10
194.97672
 20
90.591011
 30
0.0
 11
194.97672
 21
91.341011
 31
0.0
  0
LINE
  5
96
330
1F
100
AcDbEntity
  8
SLD-0
  6
Continuous
 62
   179
100
AcDbLine
 10
194.97672
 20
99.841011
 30
0.0
 11
194.97672
 21
100.091011
 31
0.0
  0
LINE
  5
97
330
1F
100
AcDbEntity
  8
SLD-0
  6
Continuous
 62
   179
100
AcDbLine
 10
268.97672
 20
82.091011
 30
0.0
 11
268.97672
 21
98.591011
 31
0.0
  0
LINE
  5
98
330
1F
100
AcDbEntity
  8
SLD-0
  6
Continuous
 62
   179
100
AcDbLine
 10
263.47672
 20
100.591011
 30
0.0
 11
263.47672
 21
91.091011
 31
0.0
  0
LINE
  5
99
330
1F
100
AcDbEntity
  8
SLD-0
  6
Continuous
 62
   179
100
AcDbLine
 10
267.97672
 20
91.091011
 30
0.0
 11
263.47672
 21
91.091011
 31
0.0
  0
LINE
  5
9A
330
1F
100
AcDbEntity
  8
SLD-0
  6
Continuous
 62
   179
100
AcDbLine
 10
268.97672
 20
82.091011
 30
0.0
 11
268.97672
 21
65.591007
 31
0.0
  0
LINE
  5
9B
330
1F
100
AcDbEntity
  8
SLD-0
  6
Continuous
 62
   179
100
AcDbLine
 10
263.47672
 20
63.591007
 30
0.0
 11
263.47672
 21
73.091007
 31
0.0
  0
LINE
  5
9C
330
1F
100
AcDbEntity
  8
SLD-0
  6
Continuous
 62
   179
100
AcDbLine
 10
267.97672
 20
73.091007
 30
0.0
 11
263.47672
 21
73.091007
 31
0.0
  0
LINE
  5
9D
330
1F
100
AcDbEntity
  8
SLD-0
  6
Continuous
 62
   179
100
AcDbLine
 10
267.47672
 20
91.341011
 30
0.0
 11
263.47672
 21
91.341011
 31
0.0
  0
LINE
  5
9E
330
1F
100
AcDbEntity
  8
SLD-0
  6
Continuous
 62
   179
100
AcDbLine
 10
263.47672
 20
99.841011
 30
0.0
 11
267.47672
 21
99.841011
 31
0.0
  0
LINE
  5
9F
330
1F
100
AcDbEntity
  8
SLD-0
  6
Continuous
 62
   179
100
AcDbLine
 10
268.47672
 20
98.841011
 30
0.0
 11
268.47672
 21
92.341011
 31
0.0
  0
LINE
  5
A0
330
1F
100
AcDbEntity
  8
SLD-0
  6
Continuous
 62
   179
100
AcDbLine
 10
264.47672
 20
99.841011
 30
0.0
 11
264.47672
 21
91.341011
 31
0.0
  0
LINE
  5
A1
330
1F
100
AcDbEntity
  8
SLD-0
  6
Continuous
 62
   179
100
AcDbLine
 10
260.47672
 20
100.591011
 30
0.0
 11
266.97672
 21
100.591011
 31
0.0
  0
LINE
  5
A2
330
1F
100
AcDbEntity
  8
SLD-0
  6
Continuous
 62
   179
100
AcDbLine
 10
260.47672
 20
63.591007
 30
0.0
 11
266.97672
 21
63.591007
 31
0.0
  0
LINE
  5
A3
330
1F
100
AcDbEntity
  8
SLD-0
  6
Continuous
 62
   179
100
AcDbLine
 10
264.47672
 20
92.103611
 30
0.0
 11
268.44829
 21
92.104304
 31
0.0
  0
LINE
  5
A4
330
1F
100
AcDbEntity
  8
SLD-0
  6
Continuous
 62
   179
100
AcDbLine
 10
268.47672
 20
92.866913
 30
0.0
 11
264.47672
 21
92.866913
 31
0.0
  0
LINE
  5
A5
330
1F
100
AcDbEntity
  8
SLD-0
  6
Continuous
 62
   179
100
AcDbLine
 10
264.47672
 20
93.630211
 30
0.0
 11
268.47672
 21
93.630211
 31
0.0
  0
LINE
  5
A6
330
1F
100
AcDbEntity
  8
SLD-0
  6
Continuous
 62
   179
100
AcDbLine
 10
268.47672
 20
94.393509
 30
0.0
 11
264.47672
 21
94.393509
 31
0.0
  0
LINE
  5
A7
330
1F
100
AcDbEntity
  8
SLD-0
  6
Continuous
 62
   179
100
AcDbLine
 10
264.47672
 20
95.156815
 30
0.0
 11
268.47672
 21
95.156815
 31
0.0
  0
LINE
  5
A8
330
1F
100
AcDbEntity
  8
SLD-0
  6
Continuous
 62
   179
100
AcDbLine
 10
268.47672
 20
95.920113
 30
0.0
 11
264.47672
 21
95.920113
 31
0.0
  0
LINE
  5
A9
330
1F
100
AcDbEntity
  8
SLD-0
  6
Continuous
 62
   179
100
AcDbLine
 10
264.47672
 20
96.683411
 30
0.0
 11
268.47672
 21
96.683411
 31
0.0
  0
LINE
  5
AA
330
1F
100
AcDbEntity
  8
SLD-0
  6
Continuous
 62
   179
100
AcDbLine
 10
268.47672
 20
97.446709
 30
0.0
 11
264.47672
 21
97.446709
 31
0.0
  0
LINE
  5
AB
330
1F
100
AcDbEntity
  8
SLD-0
  6
Continuous
 62
   179
100
AcDbLine
 10
264.47672
 20
98.210014
 30
0.0
 11
268.47672
 21
98.210014
 31
0.0
  0
LINE
  5
AC
330
1F
100
AcDbEntity
  8
SLD-0
  6
Continuous
 62
   179
100
AcDbLine
 10
268.46783
 20
98.974008
 30
0.0
 11
264.47671
 21
98.973311
 31
0.0
  0
LINE
  5
AD
330
1F
100
AcDbEntity
  8
SLD-0
  6
Continuous
 62
   179
100
AcDbLine
 10
264.47671
 20
99.736609
 30
0.0
 11
267.92036
 21
99.73721
 31
0.0
  0
LINE
  5
AE
330
1F
100
AcDbEntity
  8
SLD-0
  6
Continuous
 62
   179
100
AcDbLine
 10
267.47672
 20
64.341007
 30
0.0
 11
263.47672
 21
64.341007
 31
0.0
  0
LINE
  5
AF
330
1F
100
AcDbEntity
  8
SLD-0
  6
Continuous
 62
   179
100
AcDbLine
 10
263.47672
 20
72.841007
 30
0.0
 11
267.47672
 21
72.841007
 31
0.0
  0
LINE
  5
B0
330
1F
100
AcDbEntity
  8
SLD-0
  6
Continuous
 62
   179
100
AcDbLine
 10
268.47672
 20
71.841007
 30
0.0
 11
268.47672
 21
65.341007
 31
0.0
  0
LINE
  5
B1
330
1F
100
AcDbEntity
  8
SLD-0
  6
Continuous
 62
   179
100
AcDbLine
 10
264.47672
 20
72.841007
 30
0.0
 11
264.47672
 21
64.341007
 31
0.0
  0
LINE
  5
B2
330
1F
100
AcDbEntity
  8
SLD-0
  6
Continuous
 62
   179
100
AcDbLine
 10
264.47671
 20
65.10361
 30
0.0
 11
268.4483
 21
65.104303
 31
0.0
  0
LINE
  5
B3
330
1F
100
AcDbEntity
  8
SLD-0
  6
Continuous
 62
   179
100
AcDbLine
 10
268.47672
 20
65.866913
 30
0.0
 11
264.47672
 21
65.866913
 31
0.0
  0
LINE
  5
B4
330
1F
100
AcDbEntity
  8
SLD-0
  6
Continuous
 62
   179
100
AcDbLine
 10
264.47672
 20
66.630211
 30
0.0
 11
268.47672
 21
66.630211
 31
0.0
  0
LINE
  5
B5
330
1F
100
AcDbEntity
  8
SLD-0
  6
Continuous
 62
   179
100
AcDbLine
 10
268.47672
 20
67.393513
 30
0.0
 11
264.47672
 21
67.393513
 31
0.0
  0
LINE
  5
B6
330
1F
100
AcDbEntity
  8
SLD-0
  6
Continuous
 62
   179
100
AcDbLine
 10
264.47672
 20
68.156811
 30
0.0
 11
268.47672
 21
68.156811
 31
0.0
  0
LINE
  5
B7
330
1F
100
AcDbEntity
  8
SLD-0
  6
Continuous
 62
   179
100
AcDbLine
 10
268.47672
 20
68.920113
 30
0.0
 11
264.47672
 21
68.920113
 31
0.0
  0
LINE
  5
B8
330
1F
100
AcDbEntity
  8
SLD-0
  6
Continuous
 62
   179
100
AcDbLine
 10
264.47672
 20
69.683411
 30
0.0
 11
268.47672
 21
69.683411
 31
0.0
  0
LINE
  5
B9
330
1F
100
AcDbEntity
  8
SLD-0
  6
Continuous
 62
   179
100
AcDbLine
 10
268.47672
 20
70.446712
 30
0.0
 11
264.47672
 21
70.446712
 31
0.0
  0
LINE
  5
BA
330
1F
100
AcDbEntity
  8
SLD-0
  6
Continuous
 62
   179
100
AcDbLine
 10
264.47672
 20
71.210011
 30
0.0
 11
268.47672
 21
71.210011
 31
0.0
  0
LINE
  5
BB
330
1F
100
AcDbEntity
  8
SLD-0
  6
Continuous
 62
   179
100
AcDbLine
 10
268.46783
 20
71.974007
 30
0.0
 11
264.47671
 21
71.97331
 31
0.0
  0
LINE
  5
BC
330
1F
100
AcDbEntity
  8
SLD-0
  6
Continuous
 62
   179
100
AcDbLine
 10
264.47672
 20
72.736613
 30
0.0
 11
267.92036
 21
72.737214
 31
0.0
  0
LINE
  5
BD
330
1F
100
AcDbEntity
  8
SLD-0
  6
CENTER
 62
   179
100
AcDbLine
 10
258.47672
 20
95.591011
 30
0.0
 11
273.47672
 21
95.591011
 31
0.0
  0
LINE
  5
BE
330
1F
100
AcDbEntity
  8
SLD-0
  6
CENTER
 62
   179
100
AcDbLine
 10
258.47672
 20
68.591007
 30
0.0
 11
273.47672
 21
68.591007
 31
0.0
  0
LINE
  5
BF
330
1F
100
AcDbEntity
  8
SLD-0
  6
Continuous
 62
   179
100
AcDbLine
 10
272.67671
 20
85.991013
 30
0.0
 11
272.67671
 21
78.19101
 31
0.0
  0
LINE
  5
C0
330
1F
100
AcDbEntity
  8
SLD-0
  6
Continuous
 62
   179
100
AcDbLine
 10
272.67671
 20
85.991013
 30
0.0
 11
272.32838
 21
86.594345
 31
0.0
  0
LINE
  5
C1
330
1F
100
AcDbEntity
  8
SLD-0
  6
Continuous
 62
   179
100
AcDbLine
 10
272.67671
 20
78.19101
 30
0.0
 11
272.32838
 21
77.587681
 31
0.0
  0
LINE
  5
C2
330
1F
100
AcDbEntity
  8
SLD-0
  6
Continuous
 62
   179
100
AcDbLine
 10
272.32838
 20
86.594345
 30
0.0
 11
268.97672
 21
86.594337
 31
0.0
  0
LINE
  5
C3
330
1F
100
AcDbEntity
  8
SLD-0
  6
Continuous
 62
   179
100
AcDbLine
 10
272.3283823044
 20
84.342674
 30
0.0
 11
268.9767223044
 21
84.342674
 31
0.0
  0
LINE
  5
C4
330
1F
100
AcDbEntity
  8
SLD-0
  6
Continuous
 62
   179
100
AcDbLine
 10
272.32838
 20
79.83934
 30
0.0
 11
268.97672
 21
79.83934
 31
0.0
  0
LINE
  5
C5
330
1F
100
AcDbEntity
  8
SLD-0
  6
Continuous
 62
   179
100
AcDbLine
 10
272.32838
 20
77.587681
 30
0.0
 11
268.97672
 21
77.587677
 31
0.0
  0
LINE
  5
C6
330
1F
100
AcDbEntity
  8
SLD-0
  6
Continuous
 62
   179
100
AcDbLine
 10
272.67671
 20
84.591011
 30
0.0
 11
284.27672
 21
84.591011
 31
0.0
  0
LINE
  5
C7
330
1F
100
AcDbEntity
  8
SLD-0
  6
Continuous
 62
   179
100
AcDbLine
 10
284.67671
 20
84.19101
 30
0.0
 11
284.67671
 21
79.991013
 31
0.0
  0
LINE
  5
C8
330
1F
100
AcDbEntity
  8
SLD-0
  6
Continuous
 62
   179
100
AcDbLine
 10
284.27672
 20
79.591011
 30
0.0
 11
272.67671
 21
79.591011
 31
0.0
  0
LINE
  5
C9
330
1F
100
AcDbEntity
  8
SLD-0
  6
Continuous
 62
   179
100
AcDbLine
 10
284.67671
 20
79.991013
 30
0.0
 11
272.67671
 21
79.991013
 31
0.0
  0
LINE
  5
CA
330
1F
100
AcDbEntity
  8
SLD-0
  6
Continuous
 62
   179
100
AcDbLine
 10
284.67671
 20
84.19101
 30
0.0
 11
272.67671
 21
84.19101
 31
0.0
  0
LINE
  5
CB
330
1F
100
AcDbEntity
  8
SLD-0
  6
Continuous
 62
   179
100
AcDbLine
 10
284.27672
 20
84.591011
 30
0.0
 11
284.67671
 21
84.19101
 31
0.0
  0
LINE
  5
CC
330
1F
100
AcDbEntity
  8
SLD-0
  6
Continuous
 62
   179
100
AcDbLine
 10
284.67671
 20
79.991013
 30
0.0
 11
284.27672
 21
79.591011
 31
0.0
  0
LINE
  5
CD
330
1F
100
AcDbEntity
  8
SLD-0
  6
Continuous
 62
   179
100
AcDbLine
 10
284.27672
 20
84.591011
 30
0.0
 11
284.27672
 21
79.591011
 31
0.0
  0
LINE
  5
CE
330
1F
100
AcDbEntity
  8
SLD-0
  6
Continuous
 62
   179
100
AcDbLine
 10
368.476715
 20
197.90042
 30
0.0
 11
370.476717
 21
196.74571
 31
0.0
  0
LINE
  5
CF
330
1F
100
AcDbEntity
  8
SLD-0
  6
Continuous
 62
   179
100
AcDbLine
 10
370.476717
 20
196.74571
 30
0.0
 11
370.476715
 21
194.43631
 31
0.0
  0
LINE
  5
D0
330
1F
100
AcDbEntity
  8
SLD-0
  6
Continuous
 62
   179
100
AcDbLine
 10
370.476715
 20
194.43631
 30
0.0
 11
368.476714
 21
193.28161
 31
0.0
  0
LINE
  5
D1
330
1F
100
AcDbEntity
  8
SLD-0
  6
Continuous
 62
   179
100
AcDbLine
 10
368.476714
 20
193.28161
 30
0.0
 11
366.476716
 21
194.43631
 31
0.0
  0
LINE
  5
D2
330
1F
100
AcDbEntity
  8
SLD-0
  6
Continuous
 62
   179
100
AcDbLine
 10
366.476716
 20
194.43631
 30
0.0
 11
366.476715
 21
196.74571
 31
0.0
  0
LINE
  5
D3
330
1F
100
AcDbEntity
  8
SLD-0
  6
Continuous
 62
   179
100
AcDbLine
 10
366.476715
 20
196.74571
 30
0.0
 11
368.476716
 21
197.90041
 31
0.0
  0
LINE
  5
D4
330
1F
100
AcDbEntity
  8
SLD-0
  6
Continuous
 62
   179
100
AcDbLine
 10
368.476715
 20
170.90041
 30
0.0
 11
370.47671
 21
169.74571
 31
0.0
  0
LINE
  5
D5
330
1F
100
AcDbEntity
  8
SLD-0
  6
Continuous
 62
   179
100
AcDbLine
 10
370.47671
 20
169.74571
 30
0.0
 11
370.476715
 21
167.43631
 31
0.0
  0
LINE
  5
D6
330
1F
100
AcDbEntity
  8
SLD-0
  6
Continuous
 62
   179
100
AcDbLine
 10
370.476715
 20
167.43631
 30
0.0
 11
368.476714
 21
166.28161
 31
0.0
  0
LINE
  5
D7
330
1F
100
AcDbEntity
  8
SLD-0
  6
Continuous
 62
   179
100
AcDbLine
 10
368.476714
 20
166.28161
 30
0.0
 11
366.476715
 21
167.4363
 31
0.0
  0
LINE
  5
D8
330
1F
100
AcDbEntity
  8
SLD-0
  6
Continuous
 62
   179
100
AcDbLine
 10
366.476715
 20
167.43631
 30
0.0
 11
366.476715
 21
169.74571
 31
0.0
  0
LINE
  5
D9
330
1F
100
AcDbEntity
  8
SLD-0
  6
Continuous
 62
   179
100
AcDbLine
 10
366.476715
 20
169.74571
 30
0.0
 11
368.476715
 21
170.90041
 31
0.0
  0
LINE
  5
DA
330
1F
100
AcDbEntity
  8
SLD-0
  6
Continuous
 62
   179
100
AcDbLine
 10
341.476715
 20
170.90041
 30
0.0
 11
343.476716
 21
169.74571
 31
0.0
  0
LINE
  5
DB
330
1F
100
AcDbEntity
  8
SLD-0
  6
Continuous
 62
   179
100
AcDbLine
 10
343.476716
 20
169.74571
 30
0.0
 11
343.476715
 21
167.43631
 31
0.0
  0
LINE
  5
DC
330
1F
100
AcDbEntity
  8
SLD-0
  6
Continuous
 62
   179
100
AcDbLine
 10
343.476715
 20
167.43631
 30
0.0
 11
341.476714
 21
166.28161
 31
0.0
  0
LINE
  5
DD
330
1F
100
AcDbEntity
  8
SLD-0
  6
Continuous
 62
   179
100
AcDbLine
 10
341.476714
 20
166.28161
 30
0.0
 11
339.476715
 21
167.43631
 31
0.0
  0
LINE
  5
DE
330
1F
100
AcDbEntity
  8
SLD-0
  6
Continuous
 62
   179
100
AcDbLine
 10
339.476715
 20
167.43631
 30
0.0
 11
339.476715
 21
169.74571
 31
0.0
  0
LINE
  5
DF
330
1F
100
AcDbEntity
  8
SLD-0
  6
Continuous
 62
   179
100
AcDbLine
 10
339.476715
 20
169.74571
 30
0.0
 11
341.476715
 21
170.90041
 31
0.0
  0
LINE
  5
E0
330
1F
100
AcDbEntity
  8
SLD-0
  6
Continuous
 62
   179
100
AcDbLine
 10
341.476711
 20
197.90041
 30
0.0
 11
343.476713
 21
196.74571
 31
0.0
  0
LINE
  5
E1
330
1F
100
AcDbEntity
  8
SLD-0
  6
Continuous
 62
   179
100
AcDbLine
 10
343.476713
 20
196.74571
 30
0.0
 11
343.476715
 21
194.43631
 31
0.0
  0
LINE
  5
E2
330
1F
100
AcDbEntity
  8
SLD-0
  6
Continuous
 62
   179
100
AcDbLine
 10
343.476715
 20
194.43631
 30
0.0
 11
341.476714
 21
193.28162
 31
0.0
  0
LINE
  5
E3
330
1F
100
AcDbEntity
  8
SLD-0
  6
Continuous
 62
   179
100
AcDbLine
 10
341.476714
 20
193.28161
 30
0.0
 11
339.476712
 21
194.43631
 31
0.0
  0
LINE
  5
E4
330
1F
100
AcDbEntity
  8
SLD-0
  6
Continuous
 62
   179
100
AcDbLine
 10
339.476712
 20
194.43631
 30
0.0
 11
339.476715
 21
196.74571
 31
0.0
  0
LINE
  5
E5
330
1F
100
AcDbEntity
  8
SLD-0
  6
Continuous
 62
   179
100
AcDbLine
 10
339.476715
 20
196.74571
 30
0.0
 11
341.476711
 21
197.90041
 31
0.0
  0
LINE
  5
E6
330
1F
100
AcDbEntity
  8
SLD-0
  6
Continuous
 62
   179
100
AcDbLine
 10
354.976713
 20
176.59434
 30
0.0
 11
358.876715
 21
174.34267
 31
0.0
  0
LINE
  5
E7
330
1F
100
AcDbEntity
  8
SLD-0
  6
Continuous
 62
   179
100
AcDbLine
 10
358.876715
 20
174.34267
 30
0.0
 11
358.876717
 21
169.83934
 31
0.0
  0
LINE
  5
E8
330
1F
100
AcDbEntity
  8
SLD-0
  6
Continuous
 62
   179
100
AcDbLine
 10
358.876717
 20
169.83934
 30
0.0
 11
354.976717
 21
167.58767
 31
0.0
  0
LINE
  5
E9
330
1F
100
AcDbEntity
  8
SLD-0
  6
Continuous
 62
   179
100
AcDbLine
 10
354.976717
 20
167.58768
 30
0.0
 11
351.076716
 21
169.83935
 31
0.0
  0
LINE
  5
EA
330
1F
100
AcDbEntity
  8
SLD-0
  6
Continuous
 62
   179
100
AcDbLine
 10
351.076714
 20
169.83934
 30
0.0
 11
351.076714
 21
174.34268
 31
0.0
  0
LINE
  5
EB
330
1F
100
AcDbEntity
  8
SLD-0
  6
Continuous
 62
   179
100
AcDbLine
 10
351.076715
 20
174.34267
 30
0.0
 11
354.976713
 21
176.59434
 31
0.0
  0
LINE
  5
EC
330
1F
100
AcDbEntity
  8
SLD-0
  6
Continuous
 62
     3
100
AcDbLine
 10
344.776714
 20
207.091
 30
0.0
 11
374.176716
 21
207.091
 31
0.0
  0
LINE
  5
ED
330
1F
100
AcDbEntity
  8
SLD-0
  6
Continuous
 62
   179
100
AcDbLine
 10
363.476715
 20
203.591
 30
0.0
 11
363.476715
 21
206.091
 31
0.0
  0
LINE
  5
EE
330
1F
100
AcDbEntity
  8
SLD-0
  6
Continuous
 62
   179
100
AcDbLine
 10
346.476715
 20
203.591
 30
0.0
 11
346.476715
 21
206.091
 31
0.0
  0
LINE
  5
EF
330
1F
100
AcDbEntity
  8
SLD-0
  6
Continuous
 62
   179
100
AcDbLine
 10
346.476715
 20
206.091
 30
0.0
 11
347.476721
 21
207.09101
 31
0.0
  0
LINE
  5
F0
330
1F
100
AcDbEntity
  8
SLD-0
  6
Continuous
 62
   179
100
AcDbLine
 10
362.476716
 20
207.09101
 30
0.0
 11
363.476715
 21
206.091
 31
0.0
  0
LINE
  5
F1
330
1F
100
AcDbEntity
  8
SLD-0
  6
CENTER
 62
   179
100
AcDbLine
 10
126.97672
 20
196.341
 30
0.0
 11
126.97672
 21
205.841
 31
0.0
  0
LINE
  5
F2
330
1F
100
AcDbEntity
  8
SLD-0
  6
CENTER
 62
   179
100
AcDbLine
 10
122.22672
 20
201.091
 30
0.0
 11
131.72672
 21
201.091
 31
0.0
  0
LINE
  5
F3
330
1F
100
AcDbEntity
  8
SLD-0
  6
CENTER
 62
   179
100
AcDbLine
 10
148.97672
 20
196.341
 30
0.0
 11
148.97672
 21
205.841
 31
0.0
  0
LINE
  5
F4
330
1F
100
AcDbEntity
  8
SLD-0
  6
CENTER
 62
   179
100
AcDbLine
 10
144.22672
 20
201.091
 30
0.0
 11
153.72672
 21
201.091
 31
0.0
  0
LINE
  5
F5
330
1F
100
AcDbEntity
  8
SLD-0
  6
CENTER
 62
   179
100
AcDbLine
 10
126.97672
 20
164.841
 30
0.0
 11
126.97672
 21
174.341
 31
0.0
  0
LINE
  5
F6
330
1F
100
AcDbEntity
  8
SLD-0
  6
CENTER
 62
   179
100
AcDbLine
 10
122.22672
 20
169.591
 30
0.0
 11
131.72672
 21
169.591
 31
0.0
  0
LINE
  5
F7
330
1F
100
AcDbEntity
  8
SLD-0
  6
CENTER
 62
   179
100
AcDbLine
 10
148.97672
 20
164.841
 30
0.0
 11
148.97672
 21
174.341
 31
0.0
  0
LINE
  5
F8
330
1F
100
AcDbEntity
  8
SLD-0
  6
CENTER
 62
   179
100
AcDbLine
 10
144.22672
 20
169.591
 30
0.0
 11
153.72672
 21
169.591
 31
0.0
  0
LINE
  5
F9
330
1F
100
AcDbEntity
  8
SLD-0
  6
CENTER
 62
   179
100
AcDbLine
 10
126.97672
 20
189.44101
 30
0.0
 11
126.97672
 21
194.94101
 31
0.0
  0
LINE
  5
FA
330
1F
100
AcDbEntity
  8
SLD-0
  6
CENTER
 62
   179
100
AcDbLine
 10
124.22672
 20
192.19101
 30
0.0
 11
129.72672
 21
192.19101
 31
0.0
  0
LINE
  5
FB
330
1F
100
AcDbEntity
  8
SLD-0
  6
CENTER
 62
   179
100
AcDbLine
 10
148.97672
 20
189.44101
 30
0.0
 11
148.97672
 21
194.94101
 31
0.0
  0
LINE
  5
FC
330
1F
100
AcDbEntity
  8
SLD-0
  6
CENTER
 62
   179
100
AcDbLine
 10
146.22672
 20
192.19101
 30
0.0
 11
151.72672
 21
192.19101
 31
0.0
  0
LINE
  5
FD
330
1F
100
AcDbEntity
  8
SLD-0
  6
Continuous
 62
   179
100
AcDbLine
 10
268.97672
 20
182.091
 30
0.0
 11
268.97672
 21
198.591
 31
0.0
  0
LINE
  5
FE
330
1F
100
AcDbEntity
  8
SLD-0
  6
Continuous
 62
   179
100
AcDbLine
 10
263.47672
 20
200.591
 30
0.0
 11
263.47672
 21
191.091
 31
0.0
  0
LINE
  5
FF
330
1F
100
AcDbEntity
  8
SLD-0
  6
Continuous
 62
   179
100
AcDbLine
 10
267.97672
 20
191.091
 30
0.0
 11
263.47672
 21
191.091
 31
0.0
  0
LINE
  5
100
330
1F
100
AcDbEntity
  8
SLD-0
  6
Continuous
 62
   179
100
AcDbLine
 10
268.97672
 20
182.091
 30
0.0
 11
268.97672
 21
165.591
 31
0.0
  0
LINE
  5
101
330
1F
100
AcDbEntity
  8
SLD-0
  6
Continuous
 62
   179
100
AcDbLine
 10
263.47672
 20
163.591
 30
0.0
 11
263.47672
 21
173.091
 31
0.0
  0
LINE
  5
102
330
1F
100
AcDbEntity
  8
SLD-0
  6
Continuous
 62
   179
100
AcDbLine
 10
267.97672
 20
173.091
 30
0.0
 11
263.47672
 21
173.091
 31
0.0
  0
LINE
  5
103
330
1F
100
AcDbEntity
  8
SLD-0
  6
CENTER
 62
   179
100
AcDbLine
 10
258.97672
 20
195.591
 30
0.0
 11
271.35172
 21
195.591
 31
0.0
  0
LINE
  5
104
330
1F
100
AcDbEntity
  8
SLD-0
  6
CENTER
 62
   179
100
AcDbLine
 10
258.97672
 20
168.591
 30
0.0
 11
270.58672
 21
168.591
 31
0.0
  0
LINE
  5
105
330
1F
100
AcDbEntity
  8
SLD-0
  6
Continuous
 62
   179
100
AcDbLine
 10
195.47672
 20
200.591
 30
0.0
 11
201.97672
 21
200.591
 31
0.0
  0
LINE
  5
106
330
1F
100
AcDbEntity
  8
SLD-0
  6
Continuous
 62
   179
100
AcDbLine
 10
201.97672
 20
182.091
 30
0.0
 11
201.97672
 21
200.591
 31
0.0
  0
LINE
  5
107
330
1F
100
AcDbEntity
  8
SLD-0
  6
Continuous
 62
   179
100
AcDbLine
 10
194.97672
 20
200.091
 30
0.0
 11
195.47672
 21
200.591
 31
0.0
  0
LINE
  5
108
330
1F
100
AcDbEntity
  8
SLD-0
  6
CENTER
 62
   179
100
AcDbLine
 10
191.05672
 20
195.591
 30
0.0
 11
202.97672
 21
195.591
 31
0.0
  0
LINE
  5
109
330
1F
100
AcDbEntity
  8
SLD-0
  6
Continuous
 62
   179
100
AcDbLine
 10
197.97672
 20
191.091
 30
0.0
 11
194.97672
 21
191.091
 31
0.0
  0
LINE
  5
10A
330
1F
100
AcDbEntity
  8
SLD-0
  6
Continuous
 62
   179
100
AcDbLine
 10
197.97672
 20
200.591
 30
0.0
 11
197.97672
 21
191.091
 31
0.0
  0
LINE
  5
10B
330
1F
100
AcDbEntity
  8
SLD-0
  6
Continuous
 62
   179
100
AcDbLine
 10
201.97672
 20
182.091
 30
0.0
 11
201.97672
 21
163.591
 31
0.0
  0
LINE
  5
10C
330
1F
100
AcDbEntity
  8
SLD-0
  6
Continuous
 62
   179
100
AcDbLine
 10
194.97672
 20
164.091
 30
0.0
 11
195.47671
 21
163.59102
 31
0.0
  0
LINE
  5
10D
330
1F
100
AcDbEntity
  8
SLD-0
  6
CENTER
 62
   179
100
AcDbLine
 10
191.67671
 20
168.591
 30
0.0
 11
202.97672
 21
168.591
 31
0.0
  0
LINE
  5
10E
330
1F
100
AcDbEntity
  8
SLD-0
  6
Continuous
 62
   179
100
AcDbLine
 10
197.97672
 20
173.091
 30
0.0
 11
194.97672
 21
173.091
 31
0.0
  0
LINE
  5
10F
330
1F
100
AcDbEntity
  8
SLD-0
  6
Continuous
 62
   179
100
AcDbLine
 10
197.97672
 20
163.591
 30
0.0
 11
197.97672
 21
173.091
 31
0.0
  0
LINE
  5
110
330
1F
100
AcDbEntity
  8
SLD-0
  6
Continuous
 62
   179
100
AcDbLine
 10
119.97672
 20
182.091
 30
0.0
 11
119.97672
 21
204.091
 31
0.0
  0
LINE
  5
111
330
1F
100
AcDbEntity
  8
SLD-0
  6
Continuous
 62
   179
100
AcDbLine
 10
119.97672
 20
182.091
 30
0.0
 11
119.97672
 21
166.591
 31
0.0
  0
LINE
  5
112
330
1F
100
AcDbEntity
  8
SLD-0
  6
Continuous
 62
   179
100
AcDbLine
 10
122.97672
 20
163.591
 30
0.0
 11
201.97672
 21
163.591
 31
0.0
  0
LINE
  5
113
330
1F
100
AcDbEntity
  8
SLD-0
  6
Continuous
 62
   179
100
AcDbLine
 10
119.97672
 20
204.091
 30
0.0
 11
122.97671
 21
207.09101
 31
0.0
  0
LINE
  5
114
330
1F
100
AcDbEntity
  8
SLD-0
  6
Continuous
 62
   179
100
AcDbLine
 10
119.97672
 20
166.591
 30
0.0
 11
122.97672
 21
163.591
 31
0.0
  0
LINE
  5
115
330
1F
100
AcDbEntity
  8
SLD-0
  6
Continuous
 62
   179
100
AcDbLine
 10
156.97672
 20
207.091
 30
0.0
 11
156.97672
 21
163.591
 31
0.0
  0
LINE
  5
116
330
1F
100
AcDbEntity
  8
SLD-0
  6
Continuous
 62
   179
100
AcDbLine
 10
191.97672
 20
170.591
 30
0.0
 11
159.97672
 21
170.591
 31
0.0
  0
LINE
  5
117
330
1F
100
AcDbEntity
  8
SLD-0
  6
Continuous
 62
   179
100
AcDbLine
 10
191.97672
 20
200.091
 30
0.0
 11
159.97672
 21
200.091
 31
0.0
  0
LINE
  5
118
330
1F
100
AcDbEntity
  8
SLD-0
  6
Continuous
 62
   179
100
AcDbLine
 10
201.97672
 20
200.591
 30
0.0
 11
195.47672
 21
207.091
 31
0.0
  0
LINE
  5
119
330
1F
100
AcDbEntity
  8
SLD-0
  6
Continuous
 62
   179
100
AcDbLine
 10
122.97672
 20
207.091
 30
0.0
 11
195.47672
 21
207.091
 31
0.0
  0
LINE
  5
11A
330
1F
100
AcDbEntity
  8
SLD-0
  6
Continuous
 62
   179
100
AcDbLine
 10
260.47672
 20
200.591
 30
0.0
 11
260.47672
 21
163.591
 31
0.0
  0
LINE
  5
11B
330
1F
100
AcDbEntity
  8
SLD-0
  6
Continuous
 62
   179
100
AcDbLine
 10
156.97672
 20
186.091
 30
0.0
 11
171.97672
 21
186.091
 31
0.0
  0
LINE
  5
11C
330
1F
100
AcDbEntity
  8
SLD-0
  6
Continuous
 62
   179
100
AcDbLine
 10
156.97672
 20
174.091
 30
0.0
 11
171.97672
 21
174.091
 31
0.0
  0
LINE
  5
11D
330
1F
100
AcDbEntity
  8
SLD-0
  6
Continuous
 62
   179
100
AcDbLine
 10
126.97671
 20
202.82305
 30
0.0
 11
128.47672
 21
201.95702
 31
0.0
  0
LINE
  5
11E
330
1F
100
AcDbEntity
  8
SLD-0
  6
Continuous
 62
   179
100
AcDbLine
 10
128.47672
 20
201.95702
 30
0.0
 11
128.47672
 21
200.22499
 31
0.0
  0
LINE
  5
11F
330
1F
100
AcDbEntity
  8
SLD-0
  6
Continuous
 62
   179
100
AcDbLine
 10
128.47672
 20
200.22498
 30
0.0
 11
126.97672
 21
199.35895
 31
0.0
  0
LINE
  5
120
330
1F
100
AcDbEntity
  8
SLD-0
  6
Continuous
 62
   179
100
AcDbLine
 10
126.97672
 20
199.35895
 30
0.0
 11
125.47671
 21
200.22498
 31
0.0
  0
LINE
  5
121
330
1F
100
AcDbEntity
  8
SLD-0
  6
Continuous
 62
   179
100
AcDbLine
 10
125.47671
 20
200.22498
 30
0.0
 11
125.47672
 21
201.95703
 31
0.0
  0
LINE
  5
122
330
1F
100
AcDbEntity
  8
SLD-0
  6
Continuous
 62
   179
100
AcDbLine
 10
125.47672
 20
201.95703
 30
0.0
 11
126.97671
 21
202.82305
 31
0.0
  0
LINE
  5
123
330
1F
100
AcDbEntity
  8
SLD-0
  6
Continuous
 62
   179
100
AcDbLine
 10
148.97671
 20
202.82305
 30
0.0
 11
150.47671
 21
201.95703
 31
0.0
  0
LINE
  5
124
330
1F
100
AcDbEntity
  8
SLD-0
  6
Continuous
 62
   179
100
AcDbLine
 10
150.47671
 20
201.95703
 30
0.0
 11
150.47672
 21
200.22499
 31
0.0
  0
LINE
  5
125
330
1F
100
AcDbEntity
  8
SLD-0
  6
Continuous
 62
   179
100
AcDbLine
 10
150.47672
 20
200.22498
 30
0.0
 11
148.97673
 21
199.35896
 31
0.0
  0
LINE
  5
126
330
1F
100
AcDbEntity
  8
SLD-0
  6
Continuous
 62
   179
100
AcDbLine
 10
148.97671
 20
199.35895
 30
0.0
 11
147.47671
 21
200.22498
 31
0.0
  0
LINE
  5
127
330
1F
100
AcDbEntity
  8
SLD-0
  6
Continuous
 62
   179
100
AcDbLine
 10
147.47671
 20
200.22498
 30
0.0
 11
147.47672
 21
201.95703
 31
0.0
  0
LINE
  5
128
330
1F
100
AcDbEntity
  8
SLD-0
  6
Continuous
 62
   179
100
AcDbLine
 10
147.47672
 20
201.95703
 30
0.0
 11
148.97671
 21
202.82305
 31
0.0
  0
LINE
  5
129
330
1F
100
AcDbEntity
  8
SLD-0
  6
Continuous
 62
   179
100
AcDbLine
 10
148.9767
 20
171.32306
 30
0.0
 11
150.47671
 21
170.45703
 31
0.0
  0
LINE
  5
12A
330
1F
100
AcDbEntity
  8
SLD-0
  6
Continuous
 62
   179
100
AcDbLine
 10
150.47671
 20
170.45703
 30
0.0
 11
150.47672
 21
168.72499
 31
0.0
  0
LINE
  5
12B
330
1F
100
AcDbEntity
  8
SLD-0
  6
Continuous
 62
   179
100
AcDbLine
 10
150.47672
 20
168.72499
 30
0.0
 11
148.97671
 21
167.85896
 31
0.0
  0
LINE
  5
12C
330
1F
100
AcDbEntity
  8
SLD-0
  6
Continuous
 62
   179
100
AcDbLine
 10
148.97671
 20
167.85895
 30
0.0
 11
147.4767
 21
168.72498
 31
0.0
  0
LINE
  5
12D
330
1F
100
AcDbEntity
  8
SLD-0
  6
Continuous
 62
   179
100
AcDbLine
 10
147.47672
 20
168.72499
 30
0.0
 11
147.47672
 21
170.45703
 31
0.0
  0
LINE
  5
12E
330
1F
100
AcDbEntity
  8
SLD-0
  6
Continuous
 62
   179
100
AcDbLine
 10
147.47671
 20
170.45704
 30
0.0
 11
148.97672
 21
171.32307
 31
0.0
  0
LINE
  5
12F
330
1F
100
AcDbEntity
  8
SLD-0
  6
Continuous
 62
   179
100
AcDbLine
 10
126.97671
 20
171.32306
 30
0.0
 11
128.47671
 21
170.45703
 31
0.0
  0
LINE
  5
130
330
1F
100
AcDbEntity
  8
SLD-0
  6
Continuous
 62
   179
100
AcDbLine
 10
128.47671
 20
170.45703
 30
0.0
 11
128.47672
 21
168.72499
 31
0.0
  0
LINE
  5
131
330
1F
100
AcDbEntity
  8
SLD-0
  6
Continuous
 62
   179
100
AcDbLine
 10
128.47672
 20
168.72499
 30
0.0
 11
126.97672
 21
167.85896
 31
0.0
  0
LINE
  5
132
330
1F
100
AcDbEntity
  8
SLD-0
  6
Continuous
 62
   179
100
AcDbLine
 10
126.97671
 20
167.85895
 30
0.0
 11
125.47671
 21
168.72498
 31
0.0
  0
LINE
  5
133
330
1F
100
AcDbEntity
  8
SLD-0
  6
Continuous
 62
   179
100
AcDbLine
 10
125.47671
 20
168.72498
 30
0.0
 11
125.47672
 21
170.45703
 31
0.0
  0
LINE
  5
134
330
1F
100
AcDbEntity
  8
SLD-0
  6
Continuous
 62
   179
100
AcDbLine
 10
125.47672
 20
170.45703
 30
0.0
 11
126.97671
 21
171.32306
 31
0.0
  0
LINE
  5
135
330
1F
100
AcDbEntity
  8
SLD-0
  6
Continuous
 62
   179
100
AcDbLine
 10
171.97672
 20
186.091
 30
0.0
 11
171.97672
 21
174.091
 31
0.0
  0
LINE
  5
136
330
1F
100
AcDbEntity
  8
SLD-0
  6
Continuous
 62
   179
100
AcDbLine
 10
175.32838
 20
186.59435
 30
0.0
 11
172.32504
 21
186.59435
 31
0.0
  0
LINE
  5
137
330
1F
100
AcDbEntity
  8
SLD-0
  6
Continuous
 62
   179
100
AcDbLine
 10
175.67671
 20
185.99101
 30
0.0
 11
175.67671
 21
178.19101
 31
0.0
  0
LINE
  5
138
330
1F
100
AcDbEntity
  8
SLD-0
  6
Continuous
 62
   179
100
AcDbLine
 10
175.32838
 20
184.34268
 30
0.0
 11
172.32504
 21
184.34268
 31
0.0
  0
LINE
  5
139
330
1F
100
AcDbEntity
  8
SLD-0
  6
Continuous
 62
   179
100
AcDbLine
 10
175.32838
 20
177.58768
 30
0.0
 11
172.32504
 21
177.58768
 31
0.0
  0
LINE
  5
13A
330
1F
100
AcDbEntity
  8
SLD-0
  6
Continuous
 62
   179
100
AcDbLine
 10
175.32838
 20
179.83934
 30
0.0
 11
172.32504
 21
179.83934
 31
0.0
  0
LINE
  5
13B
330
1F
100
AcDbEntity
  8
SLD-0
  6
Continuous
 62
   179
100
AcDbLine
 10
171.97672
 20
185.99101
 30
0.0
 11
172.32506
 21
186.59434
 31
0.0
  0
LINE
  5
13C
330
1F
100
AcDbEntity
  8
SLD-0
  6
Continuous
 62
   179
100
AcDbLine
 10
171.97672
 20
178.191
 30
0.0
 11
172.32504
 21
177.58768
 31
0.0
  0
LINE
  5
13D
330
1F
100
AcDbEntity
  8
SLD-0
  6
Continuous
 62
   179
100
AcDbLine
 10
175.67671
 20
185.99101
 30
0.0
 11
175.32837
 21
186.59435
 31
0.0
  0
LINE
  5
13E
330
1F
100
AcDbEntity
  8
SLD-0
  6
Continuous
 62
   179
100
AcDbLine
 10
175.67671
 20
178.19101
 30
0.0
 11
175.32838
 21
177.58768
 31
0.0
  0
LINE
  5
13F
330
1F
100
AcDbEntity
  8
SLD-0
  6
Continuous
 62
   179
100
AcDbLine
 10
178.33398
 20
186.70981
 30
0.0
 11
181.61945
 21
186.70981
 31
0.0
  0
LINE
  5
140
330
1F
100
AcDbEntity
  8
SLD-0
  6
Continuous
 62
   179
100
AcDbLine
 10
178.33398
 20
177.47221
 30
0.0
 11
181.61945
 21
177.47221
 31
0.0
  0
LINE
  5
141
330
1F
100
AcDbEntity
  8
SLD-0
  6
Continuous
 62
   179
100
AcDbLine
 10
178.33398
 20
179.7816
 30
0.0
 11
181.61945
 21
179.7816
 31
0.0
  0
LINE
  5
142
330
1F
100
AcDbEntity
  8
SLD-0
  6
Continuous
 62
   179
100
AcDbLine
 10
178.3339771196
 20
184.40041
 30
0.0
 11
181.6194471196
 21
184.40041
 31
0.0
  0
LINE
  5
143
330
1F
100
AcDbEntity
  8
SLD-0
  6
Continuous
 62
   179
100
AcDbLine
 10
181.97672
 20
178.091
 30
0.0
 11
181.97672
 21
186.091
 31
0.0
  0
LINE
  5
144
330
1F
100
AcDbEntity
  8
SLD-0
  6
Continuous
 62
   179
100
AcDbLine
 10
177.97672
 20
178.091
 30
0.0
 11
177.97672
 21
186.091
 31
0.0
  0
LINE
  5
145
330
1F
100
AcDbEntity
  8
SLD-0
  6
Continuous
 62
   179
100
AcDbLine
 10
177.97671
 20
186.09101
 30
0.0
 11
178.33398
 21
186.70981
 31
0.0
  0
LINE
  5
146
330
1F
100
AcDbEntity
  8
SLD-0
  6
Continuous
 62
   179
100
AcDbLine
 10
181.97672
 20
186.091
 30
0.0
 11
181.61945
 21
186.7098
 31
0.0
  0
LINE
  5
147
330
1F
100
AcDbEntity
  8
SLD-0
  6
Continuous
 62
   179
100
AcDbLine
 10
177.97671
 20
178.091
 30
0.0
 11
178.33398
 21
177.47221
 31
0.0
  0
LINE
  5
148
330
1F
100
AcDbEntity
  8
SLD-0
  6
Continuous
 62
   179
100
AcDbLine
 10
181.97672
 20
178.09101
 30
0.0
 11
181.61945
 21
177.47221
 31
0.0
  0
LINE
  5
149
330
1F
100
AcDbEntity
  8
SLD-0
  6
Continuous
 62
   179
100
AcDbLine
 10
267.47672
 20
191.341
 30
0.0
 11
263.47672
 21
191.341
 31
0.0
  0
LINE
  5
14A
330
1F
100
AcDbEntity
  8
SLD-0
  6
Continuous
 62
   179
100
AcDbLine
 10
263.47672
 20
199.841
 30
0.0
 11
267.47672
 21
199.841
 31
0.0
  0
LINE
  5
14B
330
1F
100
AcDbEntity
  8
SLD-0
  6
Continuous
 62
   179
100
AcDbLine
 10
268.47672
 20
198.841
 30
0.0
 11
268.47672
 21
192.341
 31
0.0
  0
LINE
  5
14C
330
1F
100
AcDbEntity
  8
SLD-0
  6
Continuous
 62
   179
100
AcDbLine
 10
264.47672
 20
199.841
 30
0.0
 11
264.47672
 21
191.341
 31
0.0
  0
LINE
  5
14D
330
1F
100
AcDbEntity
  8
SLD-0
  6
Continuous
 62
   179
100
AcDbLine
 10
177.97672
 20
184.591
 30
0.0
 11
175.67671
 21
184.591
 31
0.0
  0
LINE
  5
14E
330
1F
100
AcDbEntity
  8
SLD-0
  6
Continuous
 62
   179
100
AcDbLine
 10
177.97672
 20
179.591
 30
0.0
 11
175.67671
 21
179.591
 31
0.0
  0
LINE
  5
14F
330
1F
100
AcDbEntity
  8
SLD-0
  6
CENTER
 62
   179
100
AcDbLine
 10
264.97672
 20
182.091
 30
0.0
 11
117.97672
 21
182.091
 31
0.0
  0
LINE
  5
150
330
1F
100
AcDbEntity
  8
SLD-0
  6
Continuous
 62
   179
100
AcDbLine
 10
260.47672
 20
200.591
 30
0.0
 11
266.97672
 21
200.591
 31
0.0
  0
LINE
  5
151
330
1F
100
AcDbEntity
  8
SLD-0
  6
Continuous
 62
   179
100
AcDbLine
 10
260.47672
 20
163.591
 30
0.0
 11
266.97672
 21
163.591
 31
0.0
  0
LINE
  5
152
330
1F
100
AcDbEntity
  8
SLD-0
  6
Continuous
 62
   179
100
AcDbLine
 10
264.47671
 20
192.1036
 30
0.0
 11
268.4483
 21
192.1043
 31
0.0
  0
LINE
  5
153
330
1F
100
AcDbEntity
  8
SLD-0
  6
Continuous
 62
   179
100
AcDbLine
 10
268.47672
 20
192.86691
 30
0.0
 11
264.47672
 21
192.86691
 31
0.0
  0
LINE
  5
154
330
1F
100
AcDbEntity
  8
SLD-0
  6
Continuous
 62
   179
100
AcDbLine
 10
264.47672
 20
193.63022
 30
0.0
 11
268.47672
 21
193.63022
 31
0.0
  0
LINE
  5
155
330
1F
100
AcDbEntity
  8
SLD-0
  6
Continuous
 62
   179
100
AcDbLine
 10
268.47672
 20
194.39351
 30
0.0
 11
264.47672
 21
194.39351
 31
0.0
  0
LINE
  5
156
330
1F
100
AcDbEntity
  8
SLD-0
  6
Continuous
 62
   179
100
AcDbLine
 10
264.47672
 20
195.15681
 30
0.0
 11
268.47672
 21
195.15681
 31
0.0
  0
LINE
  5
157
330
1F
100
AcDbEntity
  8
SLD-0
  6
Continuous
 62
   179
100
AcDbLine
 10
268.47672
 20
195.9201
 30
0.0
 11
264.47672
 21
195.9201
 31
0.0
  0
LINE
  5
158
330
1F
100
AcDbEntity
  8
SLD-0
  6
Continuous
 62
   179
100
AcDbLine
 10
264.47672
 20
196.68341
 30
0.0
 11
268.47672
 21
196.68341
 31
0.0
  0
LINE
  5
159
330
1F
100
AcDbEntity
  8
SLD-0
  6
Continuous
 62
   179
100
AcDbLine
 10
268.47672
 20
197.44672
 30
0.0
 11
264.47672
 21
197.44672
 31
0.0
  0
LINE
  5
15A
330
1F
100
AcDbEntity
  8
SLD-0
  6
Continuous
 62
   179
100
AcDbLine
 10
264.47672
 20
198.21001
 30
0.0
 11
268.47672
 21
198.21001
 31
0.0
  0
LINE
  5
15B
330
1F
100
AcDbEntity
  8
SLD-0
  6
Continuous
 62
   179
100
AcDbLine
 10
268.46784
 20
198.974
 30
0.0
 11
264.47672
 21
198.9733
 31
0.0
  0
LINE
  5
15C
330
1F
100
AcDbEntity
  8
SLD-0
  6
Continuous
 62
   179
100
AcDbLine
 10
264.47671
 20
199.73661
 30
0.0
 11
267.92036
 21
199.73721
 31
0.0
  0
LINE
  5
15D
330
1F
100
AcDbEntity
  8
SLD-0
  6
Continuous
 62
   179
100
AcDbLine
 10
267.47672
 20
164.341
 30
0.0
 11
263.47672
 21
164.341
 31
0.0
  0
LINE
  5
15E
330
1F
100
AcDbEntity
  8
SLD-0
  6
Continuous
 62
   179
100
AcDbLine
 10
263.47672
 20
172.841
 30
0.0
 11
267.47672
 21
172.841
 31
0.0
  0
LINE
  5
15F
330
1F
100
AcDbEntity
  8
SLD-0
  6
Continuous
 62
   179
100
AcDbLine
 10
268.47672
 20
171.841
 30
0.0
 11
268.47672
 21
165.341
 31
0.0
  0
LINE
  5
160
330
1F
100
AcDbEntity
  8
SLD-0
  6
Continuous
 62
   179
100
AcDbLine
 10
264.47672
 20
172.841
 30
0.0
 11
264.47672
 21
164.341
 31
0.0
  0
LINE
  5
161
330
1F
100
AcDbEntity
  8
SLD-0
  6
Continuous
 62
   179
100
AcDbLine
 10
264.47672
 20
165.1036
 30
0.0
 11
268.44829
 21
165.1043
 31
0.0
  0
LINE
  5
162
330
1F
100
AcDbEntity
  8
SLD-0
  6
Continuous
 62
   179
100
AcDbLine
 10
268.47672
 20
165.86691
 30
0.0
 11
264.47672
 21
165.86691
 31
0.0
  0
LINE
  5
163
330
1F
100
AcDbEntity
  8
SLD-0
  6
Continuous
 62
   179
100
AcDbLine
 10
264.47672
 20
166.63022
 30
0.0
 11
268.47672
 21
166.63022
 31
0.0
  0
LINE
  5
164
330
1F
100
AcDbEntity
  8
SLD-0
  6
Continuous
 62
   179
100
AcDbLine
 10
268.47672
 20
167.39351
 30
0.0
 11
264.47672
 21
167.39351
 31
0.0
  0
LINE
  5
165
330
1F
100
AcDbEntity
  8
SLD-0
  6
Continuous
 62
   179
100
AcDbLine
 10
264.47672
 20
168.15681
 30
0.0
 11
268.47672
 21
168.15681
 31
0.0
  0
LINE
  5
166
330
1F
100
AcDbEntity
  8
SLD-0
  6
Continuous
 62
   179
100
AcDbLine
 10
268.47672
 20
168.9201
 30
0.0
 11
264.47672
 21
168.9201
 31
0.0
  0
LINE
  5
167
330
1F
100
AcDbEntity
  8
SLD-0
  6
Continuous
 62
   179
100
AcDbLine
 10
264.47672
 20
169.68341
 30
0.0
 11
268.47672
 21
169.68341
 31
0.0
  0
LINE
  5
168
330
1F
100
AcDbEntity
  8
SLD-0
  6
Continuous
 62
   179
100
AcDbLine
 10
268.47672
 20
170.44672
 30
0.0
 11
264.47672
 21
170.44672
 31
0.0
  0
LINE
  5
169
330
1F
100
AcDbEntity
  8
SLD-0
  6
Continuous
 62
   179
100
AcDbLine
 10
264.47672
 20
171.21001
 30
0.0
 11
268.47672
 21
171.21001
 31
0.0
  0
LINE
  5
16A
330
1F
100
AcDbEntity
  8
SLD-0
  6
Continuous
 62
   179
100
AcDbLine
 10
268.46784
 20
171.974
 30
0.0
 11
264.47672
 21
171.9733
 31
0.0
  0
LINE
  5
16B
330
1F
100
AcDbEntity
  8
SLD-0
  6
Continuous
 62
   179
100
AcDbLine
 10
264.47671
 20
172.73661
 30
0.0
 11
267.92036
 21
172.73721
 31
0.0
  0
LINE
  5
16C
330
1F
100
AcDbEntity
  8
SLD-0
  6
Continuous
 62
   179
100
AcDbLine
 10
194.9816
 20
199.84101
 30
0.0
 11
194.97672
 21
200.091
 31
0.0
  0
LINE
  5
16D
330
1F
100
AcDbEntity
  8
SLD-0
  6
Continuous
 62
   179
100
AcDbLine
 10
193.97672
 20
172.841
 30
0.0
 11
197.97672
 21
172.841
 31
0.0
  0
LINE
  5
16E
330
1F
100
AcDbEntity
  8
SLD-0
  6
Continuous
 62
   179
100
AcDbLine
 10
197.97672
 20
164.341
 30
0.0
 11
193.97672
 21
164.341
 31
0.0
  0
LINE
  5
16F
330
1F
100
AcDbEntity
  8
SLD-0
  6
Continuous
 62
   179
100
AcDbLine
 10
192.97672
 20
165.341
 30
0.0
 11
192.97672
 21
171.841
 31
0.0
  0
LINE
  5
170
330
1F
100
AcDbEntity
  8
SLD-0
  6
Continuous
 62
   179
100
AcDbLine
 10
196.97672
 20
164.341
 30
0.0
 11
196.97672
 21
172.841
 31
0.0
  0
LINE
  5
171
330
1F
100
AcDbEntity
  8
SLD-0
  6
Continuous
 62
   179
100
AcDbLine
 10
196.97671
 20
172.07841
 30
0.0
 11
193.00514
 21
172.07772
 31
0.0
  0
LINE
  5
172
330
1F
100
AcDbEntity
  8
SLD-0
  6
Continuous
 62
   179
100
AcDbLine
 10
192.97672
 20
171.31511
 30
0.0
 11
196.97672
 21
171.31511
 31
0.0
  0
LINE
  5
173
330
1F
100
AcDbEntity
  8
SLD-0
  6
Continuous
 62
   179
100
AcDbLine
 10
196.97672
 20
170.5518
 30
0.0
 11
192.97672
 21
170.5518
 31
0.0
  0
LINE
  5
174
330
1F
100
AcDbEntity
  8
SLD-0
  6
Continuous
 62
   179
100
AcDbLine
 10
192.97672
 20
169.78851
 30
0.0
 11
196.97672
 21
169.78851
 31
0.0
  0
LINE
  5
175
330
1F
100
AcDbEntity
  8
SLD-0
  6
Continuous
 62
   179
100
AcDbLine
 10
196.97672
 20
169.02521
 30
0.0
 11
192.97672
 21
169.02521
 31
0.0
  0
LINE
  5
176
330
1F
100
AcDbEntity
  8
SLD-0
  6
Continuous
 62
   179
100
AcDbLine
 10
192.97672
 20
168.2619
 30
0.0
 11
196.97672
 21
168.2619
 31
0.0
  0
LINE
  5
177
330
1F
100
AcDbEntity
  8
SLD-0
  6
Continuous
 62
   179
100
AcDbLine
 10
196.97672
 20
167.49861
 30
0.0
 11
192.97672
 21
167.49861
 31
0.0
  0
LINE
  5
178
330
1F
100
AcDbEntity
  8
SLD-0
  6
Continuous
 62
   179
100
AcDbLine
 10
192.97672
 20
166.73531
 30
0.0
 11
196.97672
 21
166.73531
 31
0.0
  0
LINE
  5
179
330
1F
100
AcDbEntity
  8
SLD-0
  6
Continuous
 62
   179
100
AcDbLine
 10
196.97672
 20
165.972
 30
0.0
 11
192.97672
 21
165.972
 31
0.0
  0
LINE
  5
17A
330
1F
100
AcDbEntity
  8
SLD-0
  6
Continuous
 62
   179
100
AcDbLine
 10
192.9856
 20
165.20801
 30
0.0
 11
196.97671
 21
165.20871
 31
0.0
  0
LINE
  5
17B
330
1F
100
AcDbEntity
  8
SLD-0
  6
Continuous
 62
   179
100
AcDbLine
 10
196.97672
 20
164.44541
 30
0.0
 11
193.53307
 21
164.44481
 31
0.0
  0
LINE
  5
17C
330
1F
100
AcDbEntity
  8
SLD-0
  6
Continuous
 62
   179
100
AcDbLine
 10
194.97672
 20
164.091
 30
0.0
 11
194.97672
 21
164.341
 31
0.0
  0
LINE
  5
17D
330
1F
100
AcDbEntity
  8
SLD-0
  6
Continuous
 62
   179
100
AcDbLine
 10
194.97672
 20
172.841
 30
0.0
 11
194.97672
 21
191.33528
 31
0.0
  0
LINE
  5
17E
330
1F
100
AcDbEntity
  8
SLD-0
  6
CENTER
 62
   179
100
AcDbLine
 10
267.82672
 20
172.091
 30
0.0
 11
287.31571
 21
172.091
 31
0.0
  0
LINE
  5
17F
330
1F
100
AcDbEntity
  8
SLD-0
  6
Continuous
 62
   179
100
AcDbLine
 10
270.97672
 20
181.19101
 30
0.0
 11
268.97672
 21
181.19101
 31
0.0
  0
LINE
  5
180
330
1F
100
AcDbEntity
  8
SLD-0
  6
Continuous
 62
   179
100
AcDbLine
 10
270.97672
 20
188.99101
 30
0.0
 11
268.97672
 21
188.99101
 31
0.0
  0
LINE
  5
181
330
1F
100
AcDbEntity
  8
SLD-0
  6
Continuous
 62
   179
100
AcDbLine
 10
272.67671
 20
175.99101
 30
0.0
 11
272.67671
 21
168.19101
 31
0.0
  0
LINE
  5
182
330
1F
100
AcDbEntity
  8
SLD-0
  6
Continuous
 62
   179
100
AcDbLine
 10
272.67671
 20
175.99101
 30
0.0
 11
272.32838
 21
176.59434
 31
0.0
  0
LINE
  5
183
330
1F
100
AcDbEntity
  8
SLD-0
  6
Continuous
 62
   179
100
AcDbLine
 10
272.67671
 20
168.19101
 30
0.0
 11
272.32839
 21
167.58767
 31
0.0
  0
LINE
  5
184
330
1F
100
AcDbEntity
  8
SLD-0
  6
Continuous
 62
   179
100
AcDbLine
 10
272.32838
 20
176.59434
 30
0.0
 11
268.97672
 21
176.59435
 31
0.0
  0
LINE
  5
185
330
1F
100
AcDbEntity
  8
SLD-0
  6
Continuous
 62
   179
100
AcDbLine
 10
272.32838
 20
174.34268
 30
0.0
 11
268.97672
 21
174.34268
 31
0.0
  0
LINE
  5
186
330
1F
100
AcDbEntity
  8
SLD-0
  6
Continuous
 62
   179
100
AcDbLine
 10
272.32838
 20
169.83934
 30
0.0
 11
268.97672
 21
169.83934
 31
0.0
  0
LINE
  5
187
330
1F
100
AcDbEntity
  8
SLD-0
  6
Continuous
 62
   179
100
AcDbLine
 10
272.32838
 20
167.58768
 30
0.0
 11
268.97672
 21
167.58768
 31
0.0
  0
LINE
  5
188
330
1F
100
AcDbEntity
  8
SLD-0
  6
Continuous
 62
   179
100
AcDbLine
 10
272.67671
 20
174.591
 30
0.0
 11
284.27672
 21
174.591
 31
0.0
  0
LINE
  5
189
330
1F
100
AcDbEntity
  8
SLD-0
  6
Continuous
 62
   179
100
AcDbLine
 10
284.67671
 20
174.19101
 30
0.0
 11
284.67671
 21
169.99101
 31
0.0
  0
LINE
  5
18A
330
1F
100
AcDbEntity
  8
SLD-0
  6
Continuous
 62
   179
100
AcDbLine
 10
284.27672
 20
169.591
 30
0.0
 11
272.67671
 21
169.591
 31
0.0
  0
LINE
  5
18B
330
1F
100
AcDbEntity
  8
SLD-0
  6
Continuous
 62
   179
100
AcDbLine
 10
284.67671
 20
169.99101
 30
0.0
 11
272.67671
 21
169.99101
 31
0.0
  0
LINE
  5
18C
330
1F
100
AcDbEntity
  8
SLD-0
  6
Continuous
 62
   179
100
AcDbLine
 10
284.67671
 20
174.19101
 30
0.0
 11
272.67671
 21
174.19101
 31
0.0
  0
LINE
  5
18D
330
1F
100
AcDbEntity
  8
SLD-0
  6
Continuous
 62
   179
100
AcDbLine
 10
284.27671
 20
174.59101
 30
0.0
 11
284.67671
 21
174.19101
 31
0.0
  0
LINE
  5
18E
330
1F
100
AcDbEntity
  8
SLD-0
  6
Continuous
 62
   179
100
AcDbLine
 10
284.67671
 20
169.99101
 30
0.0
 11
284.27671
 21
169.59101
 31
0.0
  0
LINE
  5
18F
330
1F
100
AcDbEntity
  8
SLD-0
  6
Continuous
 62
   179
100
AcDbLine
 10
284.27672
 20
174.591
 30
0.0
 11
284.27672
 21
169.591
 31
0.0
  0
LINE
  5
190
330
1F
100
AcDbEntity
  8
SLD-0
  6
Continuous
 62
   179
100
AcDbLine
 10
193.97672
 20
199.841
 30
0.0
 11
197.97672
 21
199.841
 31
0.0
  0
LINE
  5
191
330
1F
100
AcDbEntity
  8
SLD-0
  6
Continuous
 62
   179
100
AcDbLine
 10
197.97672
 20
191.341
 30
0.0
 11
193.97672
 21
191.341
 31
0.0
  0
LINE
  5
192
330
1F
100
AcDbEntity
  8
SLD-0
  6
Continuous
 62
   179
100
AcDbLine
 10
192.97672
 20
192.341
 30
0.0
 11
192.97672
 21
198.841
 31
0.0
  0
LINE
  5
193
330
1F
100
AcDbEntity
  8
SLD-0
  6
Continuous
 62
   179
100
AcDbLine
 10
196.97672
 20
191.341
 30
0.0
 11
196.97672
 21
199.841
 31
0.0
  0
LINE
  5
194
330
1F
100
AcDbEntity
  8
SLD-0
  6
Continuous
 62
   179
100
AcDbLine
 10
270.97672
 20
191.091
 30
0.0
 11
270.97672
 21
179.091
 31
0.0
  0
LINE
  5
195
330
1F
100
AcDbEntity
  8
SLD-0
  6
CENTER
 62
   179
100
AcDbLine
 10
294.47672
 20
185.091
 30
0.0
 11
266.40172
 21
185.091
 31
0.0
  0
LINE
  5
196
330
1F
100
AcDbEntity
  8
SLD-0
  6
Continuous
 62
   179
100
AcDbLine
 10
196.97671
 20
199.07841
 30
0.0
 11
193.00514
 21
199.07772
 31
0.0
  0
LINE
  5
197
330
1F
100
AcDbEntity
  8
SLD-0
  6
Continuous
 62
   179
100
AcDbLine
 10
192.97672
 20
198.31511
 30
0.0
 11
196.97672
 21
198.31511
 31
0.0
  0
LINE
  5
198
330
1F
100
AcDbEntity
  8
SLD-0
  6
Continuous
 62
   179
100
AcDbLine
 10
196.97672
 20
197.5518
 30
0.0
 11
192.97672
 21
197.5518
 31
0.0
  0
LINE
  5
199
330
1F
100
AcDbEntity
  8
SLD-0
  6
Continuous
 62
   179
100
AcDbLine
 10
192.97672
 20
196.78851
 30
0.0
 11
196.97672
 21
196.78851
 31
0.0
  0
LINE
  5
19A
330
1F
100
AcDbEntity
  8
SLD-0
  6
Continuous
 62
   179
100
AcDbLine
 10
196.97672
 20
196.02521
 30
0.0
 11
192.97672
 21
196.02521
 31
0.0
  0
LINE
  5
19B
330
1F
100
AcDbEntity
  8
SLD-0
  6
Continuous
 62
   179
100
AcDbLine
 10
192.97672
 20
195.2619
 30
0.0
 11
196.97672
 21
195.2619
 31
0.0
  0
LINE
  5
19C
330
1F
100
AcDbEntity
  8
SLD-0
  6
Continuous
 62
   179
100
AcDbLine
 10
196.97672
 20
194.49861
 30
0.0
 11
192.97672
 21
194.49861
 31
0.0
  0
LINE
  5
19D
330
1F
100
AcDbEntity
  8
SLD-0
  6
Continuous
 62
   179
100
AcDbLine
 10
192.97672
 20
193.73531
 30
0.0
 11
196.97672
 21
193.73531
 31
0.0
  0
LINE
  5
19E
330
1F
100
AcDbEntity
  8
SLD-0
  6
Continuous
 62
   179
100
AcDbLine
 10
196.97672
 20
192.972
 30
0.0
 11
192.97672
 21
192.972
 31
0.0
  0
LINE
  5
19F
330
1F
100
AcDbEntity
  8
SLD-0
  6
Continuous
 62
   179
100
AcDbLine
 10
192.9856
 20
192.20801
 30
0.0
 11
196.97671
 21
192.20871
 31
0.0
  0
LINE
  5
1A0
330
1F
100
AcDbEntity
  8
SLD-0
  6
Continuous
 62
   179
100
AcDbLine
 10
196.97671
 20
191.44541
 30
0.0
 11
193.53308
 21
191.44481
 31
0.0
  0
LINE
  5
1A1
330
1F
100
AcDbEntity
  8
SLD-0
  6
Continuous
 62
     3
100
AcDbLine
 10
194.67671
 20
62.591007
 30
0.0
 11
125.2767
 21
62.591007
 31
0.0
  0
LINE
  5
1A2
330
1F
100
AcDbEntity
  8
SLD-0
  6
Continuous
 62
     3
100
AcDbLine
 10
125.2767
 20
92.591011
 30
0.0
 11
192.97672
 21
92.591011
 31
0.0
  0
LINE
  5
1A3
330
1F
100
AcDbEntity
  8
SLD-0
  6
Continuous
 62
     3
100
AcDbLine
 10
125.2767
 20
237.091
 30
0.0
 11
194.67671
 21
237.091
 31
0.0
  0
LINE
  5
1A4
330
1F
100
AcDbEntity
  8
SLD-0
  6
Continuous
 62
     3
100
AcDbLine
 10
194.97672
 20
236.79102
 30
0.0
 11
194.97672
 21
207.39101
 31
0.0
  0
LINE
  5
1A5
330
1F
100
AcDbEntity
  8
SLD-0
  6
Continuous
 62
     3
100
AcDbLine
 10
124.97672
 20
207.39101
 30
0.0
 11
124.97672
 21
236.79102
 31
0.0
  0
LINE
  5
1A6
330
1F
100
AcDbEntity
  8
SLD-0
  6
Continuous
 62
     3
100
AcDbLine
 10
124.97672
 20
212.091
 30
0.0
 11
194.97672
 21
212.091
 31
0.0
  0
LINE
  5
1A7
330
1F
100
AcDbEntity
  8
SLD-0
  6
Continuous
 62
     3
100
AcDbLine
 10
136.82672
 20
222.091
 30
0.0
 11
136.82672
 21
227.091
 31
0.0
  0
LINE
  5
1A8
330
1F
100
AcDbEntity
  8
SLD-0
  6
Continuous
 62
     3
100
AcDbLine
 10
143.12671
 20
227.091
 30
0.0
 11
143.12671
 21
222.091
 31
0.0
  0
LINE
  5
1A9
330
1F
100
AcDbEntity
  8
SLD-0
  6
CENTER
 62
     3
100
AcDbLine
 10
139.97672
 20
205.20001
 30
0.0
 11
139.97672
 21
232.091
 31
0.0
  0
LINE
  5
1AA
330
1F
100
AcDbEntity
  8
SLD-0
  6
CENTER
 62
     3
100
AcDbLine
 10
134.97672
 20
227.091
 30
0.0
 11
144.97672
 21
227.091
 31
0.0
  0
LINE
  5
1AB
330
1F
100
AcDbEntity
  8
SLD-0
  6
CENTER
 62
     3
100
AcDbLine
 10
134.97672
 20
222.091
 30
0.0
 11
144.97672
 21
222.091
 31
0.0
  0
LINE
  5
1AC
330
1F
100
AcDbEntity
  8
SLD-0
  6
Continuous
 62
     3
100
AcDbLine
 10
176.82672
 20
222.091
 30
0.0
 11
176.82672
 21
227.091
 31
0.0
  0
LINE
  5
1AD
330
1F
100
AcDbEntity
  8
SLD-0
  6
Continuous
 62
     3
100
AcDbLine
 10
183.12671
 20
227.091
 30
0.0
 11
183.12671
 21
222.091
 31
0.0
  0
LINE
  5
1AE
330
1F
100
AcDbEntity
  8
SLD-0
  6
CENTER
 62
     3
100
AcDbLine
 10
174.97672
 20
227.091
 30
0.0
 11
184.97672
 21
227.091
 31
0.0
  0
LINE
  5
1AF
330
1F
100
AcDbEntity
  8
SLD-0
  6
CENTER
 62
     3
100
AcDbLine
 10
174.97672
 20
222.091
 30
0.0
 11
184.97672
 21
222.091
 31
0.0
  0
LINE
  5
1B0
330
1F
100
AcDbEntity
  8
SLD-0
  6
Continuous
 62
     3
100
AcDbLine
 10
124.97672
 20
236.79101
 30
0.0
 11
125.27672
 21
237.09101
 31
0.0
  0
LINE
  5
1B1
330
1F
100
AcDbEntity
  8
SLD-0
  6
Continuous
 62
     3
100
AcDbLine
 10
194.67671
 20
237.091
 30
0.0
 11
194.97671
 21
236.79101
 31
0.0
  0
LINE
  5
1B2
330
1F
100
AcDbEntity
  8
SLD-0
  6
Continuous
 62
     3
100
AcDbLine
 10
194.97671
 20
207.39101
 30
0.0
 11
194.67671
 21
207.09101
 31
0.0
  0
LINE
  5
1B3
330
1F
100
AcDbEntity
  8
SLD-0
  6
Continuous
 62
     3
100
AcDbLine
 10
125.27671
 20
207.09101
 30
0.0
 11
124.97672
 21
207.39101
 31
0.0
  0
LINE
  5
1B4
330
1F
100
AcDbEntity
  8
SLD-0
  6
Continuous
 62
     3
100
AcDbLine
 10
124.97671
 20
92.291007
 30
0.0
 11
125.2767
 21
92.591011
 31
0.0
  0
LINE
  5
1B5
330
1F
100
AcDbEntity
  8
SLD-0
  6
Continuous
 62
     3
100
AcDbLine
 10
194.97672
 20
62.891005
 30
0.0
 11
194.67671
 21
62.591007
 31
0.0
  0
LINE
  5
1B6
330
1F
100
AcDbEntity
  8
SLD-0
  6
Continuous
 62
     3
100
AcDbLine
 10
125.27672
 20
62.591011
 30
0.0
 11
124.97672
 21
62.891016
 31
0.0
  0
LINE
  5
1B7
330
1F
100
AcDbEntity
  8
SLD-0
  6
Continuous
 62
     3
100
AcDbLine
 10
374.476715
 20
207.39101
 30
0.0
 11
374.476715
 21
236.79102
 31
0.0
  0
LINE
  5
1B8
330
1F
100
AcDbEntity
  8
SLD-0
  6
Continuous
 62
     3
100
AcDbLine
 10
344.476715
 20
211.79102
 30
0.0
 11
344.476715
 21
207.39101
 31
0.0
  0
LINE
  5
1B9
330
1F
100
AcDbEntity
  8
SLD-0
  6
Continuous
 62
     3
100
AcDbLine
 10
344.776714
 20
212.091
 30
0.0
 11
366.476715
 21
212.091
 31
0.0
  0
LINE
  5
1BA
330
1F
100
AcDbEntity
  8
SLD-0
  6
Continuous
 62
     3
100
AcDbLine
 10
369.476715
 20
215.091
 30
0.0
 11
369.476715
 21
236.79102
 31
0.0
  0
LINE
  5
1BB
330
1F
100
AcDbEntity
  8
SLD-0
  6
Continuous
 62
     3
100
AcDbLine
 10
374.176716
 20
237.091
 30
0.0
 11
369.776714
 21
237.091
 31
0.0
  0
LINE
  5
1BC
330
1F
100
AcDbEntity
  8
SLD-0
  6
Continuous
 62
     3
100
AcDbLine
 10
344.776712
 20
212.09101
 30
0.0
 11
344.476713
 21
211.79101
 31
0.0
  0
LINE
  5
1BD
330
1F
100
AcDbEntity
  8
SLD-0
  6
Continuous
 62
     3
100
AcDbLine
 10
344.476713
 20
207.39102
 30
0.0
 11
344.776714
 21
207.091
 31
0.0
  0
LINE
  5
1BE
330
1F
100
AcDbEntity
  8
SLD-0
  6
Continuous
 62
     3
100
AcDbLine
 10
374.176716
 20
207.091
 30
0.0
 11
374.476715
 21
207.39101
 31
0.0
  0
LINE
  5
1BF
330
1F
100
AcDbEntity
  8
SLD-0
  6
Continuous
 62
     3
100
AcDbLine
 10
374.476718
 20
236.79101
 30
0.0
 11
374.176714
 21
237.09102
 31
0.0
  0
LINE
  5
1C0
330
1F
100
AcDbEntity
  8
SLD-0
  6
Continuous
 62
     3
100
AcDbLine
 10
369.776717
 20
237.09102
 30
0.0
 11
369.476713
 21
236.79101
 31
0.0
  0
LINE
  5
1C1
330
1F
100
AcDbEntity
  8
SLD-0
  6
CENTER
 62
     3
100
AcDbLine
 10
355.976715
 20
220.703
 30
0.0
 11
355.976715
 21
204.091
 31
0.0
  0
LINE
  5
1C2
330
1F
100
AcDbEntity
  8
SLD-0
  6
CENTER
 62
     3
100
AcDbLine
 10
366.476715
 20
222.091
 30
0.0
 11
377.476715
 21
222.091
 31
0.0
  0
LINE
  5
1C3
330
1F
100
AcDbEntity
  8
SLD-0
  6
CENTER
 62
     3
100
AcDbLine
 10
366.476715
 20
227.091
 30
0.0
 11
377.476715
 21
227.091
 31
0.0
  0
LINE
  5
1C4
330
1F
100
AcDbEntity
  8
SLD-0
  6
HIDDEN
 62
     3
100
AcDbLine
 10
358.626717
 20
207.091
 30
0.0
 11
358.626717
 21
212.091
 31
0.0
  0
LINE
  5
1C5
330
1F
100
AcDbEntity
  8
SLD-0
  6
HIDDEN
 62
     3
100
AcDbLine
 10
353.326714
 20
207.091
 30
0.0
 11
353.326714
 21
212.091
 31
0.0
  0
LINE
  5
1C6
330
1F
100
AcDbEntity
  8
SLD-0
  6
HIDDEN
 62
     3
100
AcDbLine
 10
369.476715
 20
218.94101
 30
0.0
 11
374.476715
 21
218.94101
 31
0.0
  0
LINE
  5
1C7
330
1F
100
AcDbEntity
  8
SLD-0
  6
HIDDEN
 62
     3
100
AcDbLine
 10
369.476715
 20
230.24101
 30
0.0
 11
374.476715
 21
230.24101
 31
0.0
  0
LINE
  5
1C8
330
1F
100
AcDbEntity
  8
SLD-0
  6
Continuous
 62
     3
100
AcDbLine
 10
124.97672
 20
62.891016
 30
0.0
 11
124.97672
 21
73.591007
 31
0.0
  0
LINE
  5
1C9
330
1F
100
AcDbEntity
  8
SLD-0
  6
Continuous
 62
     3
100
AcDbLine
 10
124.97672
 20
90.591011
 30
0.0
 11
124.97671
 21
92.291007
 31
0.0
  0
LINE
  5
1CA
330
1F
100
AcDbEntity
  8
SLD-0
  6
Continuous
 62
     3
100
AcDbLine
 10
194.97672
 20
64.091007
 30
0.0
 11
194.97672
 21
62.891005
 31
0.0
  0
LINE
  5
1CB
330
1F
100
AcDbEntity
  8
SLD-0
  6
Continuous
 62
     3
100
AcDbLine
 10
360.226715
 20
216.091
 30
0.0
 11
360.226715
 21
212.091
 31
0.0
  0
LINE
  5
1CC
330
1F
100
AcDbEntity
  8
SLD-0
  6
Continuous
 62
     3
100
AcDbLine
 10
351.726715
 20
212.091
 30
0.0
 11
351.726715
 21
216.091
 31
0.0
  0
LINE
  5
1CD
330
1F
100
AcDbEntity
  8
SLD-0
  6
Continuous
 62
     3
100
AcDbLine
 10
352.726715
 20
217.091
 30
0.0
 11
359.226715
 21
217.091
 31
0.0
  0
LINE
  5
1CE
330
1F
100
AcDbEntity
  8
SLD-0
  6
Continuous
 62
     3
100
AcDbLine
 10
351.726715
 20
213.091
 30
0.0
 11
360.226715
 21
213.091
 31
0.0
  0
LINE
  5
1CF
330
1F
100
AcDbEntity
  8
SLD-0
  6
Continuous
 62
     3
100
AcDbLine
 10
359.464114
 20
213.091
 30
0.0
 11
359.463421
 21
217.06259
 31
0.0
  0
LINE
  5
1D0
330
1F
100
AcDbEntity
  8
SLD-0
  6
Continuous
 62
     3
100
AcDbLine
 10
358.700813
 20
217.091
 30
0.0
 11
358.700813
 21
213.091
 31
0.0
  0
LINE
  5
1D1
330
1F
100
AcDbEntity
  8
SLD-0
  6
Continuous
 62
     3
100
AcDbLine
 10
357.937511
 20
213.091
 30
0.0
 11
357.937511
 21
217.091
 31
0.0
  0
LINE
  5
1D2
330
1F
100
AcDbEntity
  8
SLD-0
  6
Continuous
 62
     3
100
AcDbLine
 10
357.174213
 20
217.091
 30
0.0
 11
357.174213
 21
213.091
 31
0.0
  0
LINE
  5
1D3
330
1F
100
AcDbEntity
  8
SLD-0
  6
Continuous
 62
     3
100
AcDbLine
 10
356.410912
 20
213.091
 30
0.0
 11
356.410912
 21
217.091
 31
0.0
  0
LINE
  5
1D4
330
1F
100
AcDbEntity
  8
SLD-0
  6
Continuous
 62
     3
100
AcDbLine
 10
355.647614
 20
217.091
 30
0.0
 11
355.647614
 21
213.091
 31
0.0
  0
LINE
  5
1D5
330
1F
100
AcDbEntity
  8
SLD-0
  6
Continuous
 62
     3
100
AcDbLine
 10
354.884312
 20
213.091
 30
0.0
 11
354.884312
 21
217.091
 31
0.0
  0
LINE
  5
1D6
330
1F
100
AcDbEntity
  8
SLD-0
  6
Continuous
 62
     3
100
AcDbLine
 10
354.121014
 20
217.091
 30
0.0
 11
354.121014
 21
213.091
 31
0.0
  0
LINE
  5
1D7
330
1F
100
AcDbEntity
  8
SLD-0
  6
Continuous
 62
     3
100
AcDbLine
 10
353.357712
 20
213.091
 30
0.0
 11
353.357712
 21
217.091
 31
0.0
  0
LINE
  5
1D8
330
1F
100
AcDbEntity
  8
SLD-0
  6
Continuous
 62
     3
100
AcDbLine
 10
352.593716
 20
217.08212
 30
0.0
 11
352.594413
 21
213.091
 31
0.0
  0
LINE
  5
1D9
330
1F
100
AcDbEntity
  8
SLD-0
  6
Continuous
 62
     3
100
AcDbLine
 10
351.831112
 20
213.09101
 30
0.0
 11
351.830511
 21
216.53465
 31
0.0
  0
LINE
  5
1DA
330
1F
100
AcDbEntity
  8
SLD-0
  6
Continuous
 62
     3
100
AcDbLine
 10
144.22672
 20
216.091
 30
0.0
 11
144.22672
 21
212.091
 31
0.0
  0
LINE
  5
1DB
330
1F
100
AcDbEntity
  8
SLD-0
  6
Continuous
 62
     3
100
AcDbLine
 10
135.72672
 20
212.091
 30
0.0
 11
135.72672
 21
216.091
 31
0.0
  0
LINE
  5
1DC
330
1F
100
AcDbEntity
  8
SLD-0
  6
Continuous
 62
     3
100
AcDbLine
 10
136.72672
 20
217.091
 30
0.0
 11
143.22672
 21
217.091
 31
0.0
  0
LINE
  5
1DD
330
1F
100
AcDbEntity
  8
SLD-0
  6
Continuous
 62
     3
100
AcDbLine
 10
135.72672
 20
213.091
 30
0.0
 11
144.22672
 21
213.091
 31
0.0
  0
LINE
  5
1DE
330
1F
100
AcDbEntity
  8
SLD-0
  6
Continuous
 62
     3
100
AcDbLine
 10
143.46412
 20
213.091
 30
0.0
 11
143.46343
 21
217.06259
 31
0.0
  0
LINE
  5
1DF
330
1F
100
AcDbEntity
  8
SLD-0
  6
Continuous
 62
     3
100
AcDbLine
 10
142.70081
 20
217.091
 30
0.0
 11
142.70081
 21
213.091
 31
0.0
  0
LINE
  5
1E0
330
1F
100
AcDbEntity
  8
SLD-0
  6
Continuous
 62
     3
100
AcDbLine
 10
141.9375
 20
213.091
 30
0.0
 11
141.9375
 21
217.091
 31
0.0
  0
LINE
  5
1E1
330
1F
100
AcDbEntity
  8
SLD-0
  6
Continuous
 62
     3
100
AcDbLine
 10
141.17422
 20
217.091
 30
0.0
 11
141.17422
 21
213.091
 31
0.0
  0
LINE
  5
1E2
330
1F
100
AcDbEntity
  8
SLD-0
  6
Continuous
 62
     3
100
AcDbLine
 10
140.41092
 20
213.091
 30
0.0
 11
140.41092
 21
217.091
 31
0.0
  0
LINE
  5
1E3
330
1F
100
AcDbEntity
  8
SLD-0
  6
Continuous
 62
     3
100
AcDbLine
 10
139.64761
 20
217.091
 30
0.0
 11
139.64761
 21
213.091
 31
0.0
  0
LINE
  5
1E4
330
1F
100
AcDbEntity
  8
SLD-0
  6
Continuous
 62
     3
100
AcDbLine
 10
138.88431
 20
213.091
 30
0.0
 11
138.88431
 21
217.091
 31
0.0
  0
LINE
  5
1E5
330
1F
100
AcDbEntity
  8
SLD-0
  6
Continuous
 62
     3
100
AcDbLine
 10
138.121
 20
217.091
 30
0.0
 11
138.121
 21
213.091
 31
0.0
  0
LINE
  5
1E6
330
1F
100
AcDbEntity
  8
SLD-0
  6
Continuous
 62
     3
100
AcDbLine
 10
137.35773
 20
213.091
 30
0.0
 11
137.35773
 21
217.091
 31
0.0
  0
LINE
  5
1E7
330
1F
100
AcDbEntity
  8
SLD-0
  6
Continuous
 62
     3
100
AcDbLine
 10
136.5937
 20
217.08212
 30
0.0
 11
136.5944
 21
213.091
 31
0.0
  0
LINE
  5
1E8
330
1F
100
AcDbEntity
  8
SLD-0
  6
Continuous
 62
     3
100
AcDbLine
 10
135.83112
 20
213.09101
 30
0.0
 11
135.83051
 21
216.53465
 31
0.0
  0
LINE
  5
1E9
330
1F
100
AcDbEntity
  8
SLD-0
  6
Continuous
 62
     3
100
AcDbLine
 10
184.22672
 20
216.091
 30
0.0
 11
184.22672
 21
212.091
 31
0.0
  0
LINE
  5
1EA
330
1F
100
AcDbEntity
  8
SLD-0
  6
Continuous
 62
     3
100
AcDbLine
 10
175.72672
 20
212.091
 30
0.0
 11
175.72672
 21
216.091
 31
0.0
  0
LINE
  5
1EB
330
1F
100
AcDbEntity
  8
SLD-0
  6
Continuous
 62
     3
100
AcDbLine
 10
176.72672
 20
217.091
 30
0.0
 11
183.22672
 21
217.091
 31
0.0
  0
LINE
  5
1EC
330
1F
100
AcDbEntity
  8
SLD-0
  6
Continuous
 62
     3
100
AcDbLine
 10
175.72672
 20
213.091
 30
0.0
 11
184.22672
 21
213.091
 31
0.0
  0
LINE
  5
1ED
330
1F
100
AcDbEntity
  8
SLD-0
  6
Continuous
 62
     3
100
AcDbLine
 10
183.46412
 20
213.09101
 30
0.0
 11
183.46343
 21
217.0626
 31
0.0
  0
LINE
  5
1EE
330
1F
100
AcDbEntity
  8
SLD-0
  6
Continuous
 62
     3
100
AcDbLine
 10
182.70081
 20
217.091
 30
0.0
 11
182.70081
 21
213.091
 31
0.0
  0
LINE
  5
1EF
330
1F
100
AcDbEntity
  8
SLD-0
  6
Continuous
 62
     3
100
AcDbLine
 10
181.93752
 20
213.091
 30
0.0
 11
181.93752
 21
217.091
 31
0.0
  0
LINE
  5
1F0
330
1F
100
AcDbEntity
  8
SLD-0
  6
Continuous
 62
     3
100
AcDbLine
 10
181.17421
 20
217.091
 30
0.0
 11
181.17421
 21
213.091
 31
0.0
  0
LINE
  5
1F1
330
1F
100
AcDbEntity
  8
SLD-0
  6
Continuous
 62
     3
100
AcDbLine
 10
180.41092
 20
213.091
 30
0.0
 11
180.41092
 21
217.091
 31
0.0
  0
LINE
  5
1F2
330
1F
100
AcDbEntity
  8
SLD-0
  6
Continuous
 62
     3
100
AcDbLine
 10
179.64761
 20
217.091
 30
0.0
 11
179.64761
 21
213.091
 31
0.0
  0
LINE
  5
1F3
330
1F
100
AcDbEntity
  8
SLD-0
  6
Continuous
 62
     3
100
AcDbLine
 10
178.88431
 20
213.091
 30
0.0
 11
178.88431
 21
217.091
 31
0.0
  0
LINE
  5
1F4
330
1F
100
AcDbEntity
  8
SLD-0
  6
Continuous
 62
     3
100
AcDbLine
 10
178.12102
 20
217.091
 30
0.0
 11
178.12102
 21
213.091
 31
0.0
  0
LINE
  5
1F5
330
1F
100
AcDbEntity
  8
SLD-0
  6
Continuous
 62
     3
100
AcDbLine
 10
177.35771
 20
213.091
 30
0.0
 11
177.35771
 21
217.091
 31
0.0
  0
LINE
  5
1F6
330
1F
100
AcDbEntity
  8
SLD-0
  6
Continuous
 62
     3
100
AcDbLine
 10
176.59372
 20
217.08212
 30
0.0
 11
176.59441
 21
213.09101
 31
0.0
  0
LINE
  5
1F7
330
1F
100
AcDbEntity
  8
SLD-0
  6
Continuous
 62
     3
100
AcDbLine
 10
175.83112
 20
213.09101
 30
0.0
 11
175.83052
 21
216.53465
 31
0.0
  0
LINE
  5
1F8
330
1F
100
AcDbEntity
  8
SLD-0
  6
CENTER
 62
     3
100
AcDbLine
 10
179.97672
 20
205.20001
 30
0.0
 11
179.97672
 21
232.091
 31
0.0
  0
LINE
  5
1F9
330
1F
100
AcDbEntity
  8
SLD-0
  6
Continuous
 62
   179
100
AcDbLine
 10
119.97672
 20
186.091
 30
0.0
 11
106.97672
 21
186.091
 31
0.0
  0
LINE
  5
1FA
330
1F
100
AcDbEntity
  8
SLD-0
  6
Continuous
 62
   179
100
AcDbLine
 10
119.97672
 20
174.19101
 30
0.0
 11
106.97672
 21
174.19101
 31
0.0
  0
LINE
  5
1FB
330
1F
100
AcDbEntity
  8
SLD-0
  6
Continuous
 62
   179
100
AcDbLine
 10
280.97672
 20
204.091
 30
0.0
 11
292.97672
 21
204.091
 31
0.0
  0
LINE
  5
1FC
330
1F
100
AcDbEntity
  8
SLD-0
  6
Continuous
 62
   179
100
AcDbLine
 10
292.97672
 20
204.091
 30
0.0
 11
292.97672
 21
203.091
 31
0.0
  0
LINE
  5
1FD
330
1F
100
AcDbEntity
  8
SLD-0
  6
Continuous
 62
   179
100
AcDbLine
 10
292.97672
 20
203.091
 30
0.0
 11
280.97672
 21
203.091
 31
0.0
  0
LINE
  5
1FE
330
1F
100
AcDbEntity
  8
SLD-0
  6
Continuous
 62
   179
100
AcDbLine
 10
280.97672
 20
203.091
 30
0.0
 11
280.97672
 21
204.091
 31
0.0
  0
LINE
  5
1FF
330
1F
100
AcDbEntity
  8
SLD-0
  6
Continuous
 62
   179
100
AcDbLine
 10
215.47672
 20
158.591
 30
0.0
 11
203.47672
 21
158.591
 31
0.0
  0
LINE
  5
200
330
1F
100
AcDbEntity
  8
SLD-0
  6
Continuous
 62
   179
100
AcDbLine
 10
231.47672
 20
152.091
 30
0.0
 11
232.47672
 21
152.091
 31
0.0
  0
LINE
  5
201
330
1F
100
AcDbEntity
  8
SLD-0
  6
Continuous
 62
   179
100
AcDbLine
 10
232.47672
 20
152.091
 30
0.0
 11
232.47672
 21
141.091
 31
0.0
  0
LINE
  5
202
330
1F
100
AcDbEntity
  8
SLD-0
  6
Continuous
 62
   179
100
AcDbLine
 10
232.47672
 20
141.091
 30
0.0
 11
231.47672
 21
141.091
 31
0.0
  0
LINE
  5
203
330
1F
100
AcDbEntity
  8
SLD-0
  6
Continuous
 62
   179
100
AcDbLine
 10
231.47672
 20
141.091
 30
0.0
 11
231.47672
 21
152.091
 31
0.0
  0
LINE
  5
204
330
1F
100
AcDbEntity
  8
SLD-0
  6
Continuous
 62
   179
100
AcDbLine
 10
202.97672
 20
134.59101
 30
0.0
 11
215.97672
 21
134.59101
 31
0.0
  0
LINE
  5
205
330
1F
100
AcDbEntity
  8
SLD-0
  6
Continuous
 62
   179
100
AcDbLine
 10
215.97672
 20
134.59101
 30
0.0
 11
215.97672
 21
132.59101
 31
0.0
  0
LINE
  5
206
330
1F
100
AcDbEntity
  8
SLD-0
  6
Continuous
 62
   179
100
AcDbLine
 10
215.97672
 20
132.59101
 30
0.0
 11
202.97672
 21
132.59101
 31
0.0
  0
LINE
  5
207
330
1F
100
AcDbEntity
  8
SLD-0
  6
Continuous
 62
   179
100
AcDbLine
 10
202.97672
 20
132.59101
 30
0.0
 11
202.97672
 21
134.59101
 31
0.0
  0
LINE
  5
208
330
1F
100
AcDbEntity
  8
SLD-0
  6
CENTER
 62
   179
100
AcDbLine
 10
209.47672
 20
76.227013
 30
0.0
 11
209.47672
 21
87.955009
 31
0.0
  0
LINE
  5
209
330
1F
100
AcDbEntity
  8
SLD-0
  6
Continuous
 62
   179
100
AcDbLine
 10
119.97672
 20
78.591011
 30
0.0
 11
54.97672
 21
78.591011
 31
0.0
  0
LINE
  5
20A
330
1F
100
AcDbEntity
  8
SLD-0
  6
Continuous
 62
   179
100
AcDbLine
 10
94.10107
 20
85.591011
 30
0.0
 11
54.97672
 21
85.591011
 31
0.0
  0
LINE
  5
20B
330
1F
100
AcDbEntity
  8
SLD-0
  6
Continuous
 62
   179
100
AcDbLine
 10
106.97672
 20
85.591011
 30
0.0
 11
119.97672
 21
85.591011
 31
0.0
  0
LINE
  5
20C
330
1F
100
AcDbEntity
  8
SLD-0
  6
Continuous
 62
   179
100
AcDbLine
 10
95.83313
 20
86.591011
 30
0.0
 11
106.97672
 21
86.591011
 31
0.0
  0
LINE
  5
20D
330
1F
100
AcDbEntity
  8
SLD-0
  6
Continuous
 62
   179
100
AcDbLine
 10
81.97672
 20
78.591011
 30
0.0
 11
82.47672
 21
78.591011
 31
0.0
  0
LINE
  5
20E
330
1F
100
AcDbEntity
  8
SLD-0
  6
Continuous
 62
   179
100
AcDbLine
 10
82.47672
 20
78.591011
 30
0.0
 11
90.46575
 21
79.009698
 31
0.0
  0
LINE
  5
20F
330
1F
100
AcDbEntity
  8
SLD-0
  6
Continuous
 62
   179
100
AcDbLine
 10
90.46575
 20
79.009698
 30
0.0
 11
90.48769
 21
78.591011
 31
0.0
  0
LINE
  5
210
330
1F
100
AcDbEntity
  8
SLD-0
  6
Continuous
 62
   179
100
AcDbLine
 10
92.97672
 20
84.941864
 30
0.0
 11
92.97672
 21
78.591011
 31
0.0
  0
LINE
  5
211
330
1F
100
AcDbEntity
  8
SLD-0
  6
Continuous
 62
   179
100
AcDbLine
 10
93.97672
 20
85.519211
 30
0.0
 11
93.97672
 21
78.591011
 31
0.0
  0
LINE
  5
212
330
1F
100
AcDbEntity
  8
SLD-0
  6
Continuous
 62
   179
100
AcDbLine
 10
83.70877
 20
79.591012
 30
0.0
 11
92.97672
 21
83.525021
 31
0.0
  0
LINE
  5
213
330
1F
100
AcDbEntity
  8
SLD-0
  6
Continuous
 62
   179
100
AcDbLine
 10
92.97672
 20
84.941864
 30
0.0
 11
95.83311
 21
86.591012
 31
0.0
  0
LINE
  5
214
330
1F
100
AcDbEntity
  8
SLD-0
  6
Continuous
 62
   179
100
AcDbLine
 10
83.70877
 20
79.591012
 30
0.0
 11
81.97672
 21
78.591011
 31
0.0
  0
LINE
  5
215
330
1F
100
AcDbEntity
  8
SLD-0
  6
Continuous
 62
   179
100
AcDbLine
 10
106.97672
 20
78.591011
 30
0.0
 11
106.97672
 21
86.591011
 31
0.0
  0
LINE
  5
216
330
1F
100
AcDbEntity
  8
SLD-0
  6
Continuous
 62
   179
100
AcDbLine
 10
105.97672
 20
78.591011
 30
0.0
 11
105.97672
 21
86.591011
 31
0.0
  0
LINE
  5
217
330
1F
100
AcDbEntity
  8
SLD-0
  6
Continuous
 62
   179
100
AcDbLine
 10
106.97673
 20
190.191
 30
0.0
 11
105.97673
 21
191.191
 31
0.0
  0
LINE
  5
218
330
1F
100
AcDbEntity
  8
SLD-0
  6
Continuous
 62
   179
100
AcDbLine
 10
106.97672
 20
157.19101
 30
0.0
 11
105.97672
 21
156.19101
 31
0.0
  0
LINE
  5
219
330
1F
100
AcDbEntity
  8
SLD-0
  6
Continuous
 62
   179
100
AcDbLine
 10
95.83313
 20
156.19101
 30
0.0
 11
95.83313
 21
191.19101
 31
0.0
  0
LINE
  5
21A
330
1F
100
AcDbEntity
  8
SLD-0
  6
Continuous
 62
   179
100
AcDbLine
 10
83.70877
 20
184.49101
 30
0.0
 11
83.70877
 21
174.19101
 31
0.0
  0
LINE
  5
21B
330
1F
100
AcDbEntity
  8
SLD-0
  6
Continuous
 62
   179
100
AcDbLine
 10
56.97672
 20
172.591
 30
0.0
 11
69.97672
 21
172.591
 31
0.0
  0
LINE
  5
21C
330
1F
100
AcDbEntity
  8
SLD-0
  6
Continuous
 62
   179
100
AcDbLine
 10
369.476715
 20
200.591
 30
0.0
 11
340.476715
 21
200.591
 31
0.0
  0
LINE
  5
21D
330
1F
100
AcDbEntity
  8
SLD-0
  6
Continuous
 62
   179
100
AcDbLine
 10
369.476715
 20
163.591
 30
0.0
 11
340.476715
 21
163.591
 31
0.0
  0
LINE
  5
21E
330
1F
100
AcDbEntity
  8
SLD-0
  6
Continuous
 62
   179
100
AcDbLine
 10
373.476715
 20
167.591
 30
0.0
 11
373.476715
 21
196.591
 31
0.0
  0
LINE
  5
21F
330
1F
100
AcDbEntity
  8
SLD-0
  6
CENTER
 62
   179
100
AcDbLine
 10
354.976715
 20
202.091
 30
0.0
 11
354.976715
 21
162.091
 31
0.0
  0
LINE
  5
220
330
1F
100
AcDbEntity
  8
SLD-0
  6
CENTER
 62
   179
100
AcDbLine
 10
334.976715
 20
182.091
 30
0.0
 11
374.976715
 21
182.091
 31
0.0
  0
LINE
  5
221
330
1F
100
AcDbEntity
  8
SLD-0
  6
CENTER
 62
   179
100
AcDbLine
 10
368.476715
 20
191.44101
 30
0.0
 11
368.476715
 21
199.74101
 31
0.0
  0
LINE
  5
222
330
1F
100
AcDbEntity
  8
SLD-0
  6
CENTER
 62
   179
100
AcDbLine
 10
364.326714
 20
195.591
 30
0.0
 11
372.626715
 21
195.591
 31
0.0
  0
LINE
  5
223
330
1F
100
AcDbEntity
  8
SLD-0
  6
Continuous
 62
   179
100
AcDbLine
 10
363.976715
 20
199.591
 30
0.0
 11
363.976715
 21
195.591
 31
0.0
  0
LINE
  5
224
330
1F
100
AcDbEntity
  8
SLD-0
  6
Continuous
 62
   179
100
AcDbLine
 10
372.476715
 20
191.091
 30
0.0
 11
368.476715
 21
191.091
 31
0.0
  0
LINE
  5
225
330
1F
100
AcDbEntity
  8
SLD-0
  6
CENTER
 62
   179
100
AcDbLine
 10
368.476715
 20
172.74101
 30
0.0
 11
368.476715
 21
164.44101
 31
0.0
  0
LINE
  5
226
330
1F
100
AcDbEntity
  8
SLD-0
  6
CENTER
 62
   179
100
AcDbLine
 10
364.326714
 20
168.591
 30
0.0
 11
372.626715
 21
168.591
 31
0.0
  0
LINE
  5
227
330
1F
100
AcDbEntity
  8
SLD-0
  6
Continuous
 62
   179
100
AcDbLine
 10
363.976715
 20
164.591
 30
0.0
 11
363.976715
 21
168.591
 31
0.0
  0
LINE
  5
228
330
1F
100
AcDbEntity
  8
SLD-0
  6
Continuous
 62
   179
100
AcDbLine
 10
372.476715
 20
173.091
 30
0.0
 11
368.476715
 21
173.091
 31
0.0
  0
LINE
  5
229
330
1F
100
AcDbEntity
  8
SLD-0
  6
Continuous
 62
   179
100
AcDbLine
 10
336.476715
 20
167.591
 30
0.0
 11
336.476715
 21
196.591
 31
0.0
  0
LINE
  5
22A
330
1F
100
AcDbEntity
  8
SLD-0
  6
CENTER
 62
   179
100
AcDbLine
 10
341.476715
 20
191.44101
 30
0.0
 11
341.476715
 21
199.74101
 31
0.0
  0
LINE
  5
22B
330
1F
100
AcDbEntity
  8
SLD-0
  6
CENTER
 62
   179
100
AcDbLine
 10
345.626717
 20
195.591
 30
0.0
 11
337.326714
 21
195.591
 31
0.0
  0
LINE
  5
22C
330
1F
100
AcDbEntity
  8
SLD-0
  6
Continuous
 62
   179
100
AcDbLine
 10
345.976715
 20
199.591
 30
0.0
 11
345.976715
 21
195.591
 31
0.0
  0
LINE
  5
22D
330
1F
100
AcDbEntity
  8
SLD-0
  6
Continuous
 62
   179
100
AcDbLine
 10
337.476715
 20
191.091
 30
0.0
 11
341.476715
 21
191.091
 31
0.0
  0
LINE
  5
22E
330
1F
100
AcDbEntity
  8
SLD-0
  6
CENTER
 62
   179
100
AcDbLine
 10
341.476715
 20
172.74101
 30
0.0
 11
341.476715
 21
164.44101
 31
0.0
  0
LINE
  5
22F
330
1F
100
AcDbEntity
  8
SLD-0
  6
CENTER
 62
   179
100
AcDbLine
 10
345.626717
 20
168.591
 30
0.0
 11
337.326714
 21
168.591
 31
0.0
  0
LINE
  5
230
330
1F
100
AcDbEntity
  8
SLD-0
  6
Continuous
 62
   179
100
AcDbLine
 10
345.976715
 20
164.591
 30
0.0
 11
345.976715
 21
168.591
 31
0.0
  0
LINE
  5
231
330
1F
100
AcDbEntity
  8
SLD-0
  6
Continuous
 62
   179
100
AcDbLine
 10
337.476715
 20
173.091
 30
0.0
 11
341.476715
 21
173.091
 31
0.0
  0
LINE
  5
232
330
1F
100
AcDbEntity
  8
SLD-0
  6
CENTER
 62
   179
100
AcDbLine
 10
348.976715
 20
185.091
 30
0.0
 11
360.976715
 21
185.091
 31
0.0
  0
LINE
  5
233
330
1F
100
AcDbEntity
  8
SLD-0
  6
CENTER
 62
   179
100
AcDbLine
 10
350.976715
 20
172.091
 30
0.0
 11
358.976715
 21
172.091
 31
0.0
  0
LINE
  5
234
330
1F
100
AcDbEntity
  8
SLD-0
  6
Continuous
 62
   179
100
AcDbLine
 10
120.97672
 20
73.591007
 30
0.0
 11
194.97672
 21
73.591007
 31
0.0
  0
LINE
  5
235
330
1F
100
AcDbEntity
  8
SLD-0
  6
Continuous
 62
   179
100
AcDbLine
 10
119.97672
 20
74.591007
 30
0.0
 11
119.97672
 21
82.091011
 31
0.0
  0
LINE
  5
236
330
1F
100
AcDbEntity
  8
SLD-0
  6
Continuous
 62
   179
100
AcDbLine
 10
194.97672
 20
64.091007
 30
0.0
 11
195.47671
 21
63.591012
 31
0.0
  0
LINE
  5
237
330
1F
100
AcDbEntity
  8
SLD-0
  6
CENTER
 62
   179
100
AcDbLine
 10
191.12871
 20
68.591007
 30
0.0
 11
199.89671
 21
68.591007
 31
0.0
  0
LINE
  5
238
330
1F
100
AcDbEntity
  8
SLD-0
  6
Continuous
 62
   179
100
AcDbLine
 10
197.97672
 20
73.091007
 30
0.0
 11
194.97672
 21
73.091007
 31
0.0
  0
LINE
  5
239
330
1F
100
AcDbEntity
  8
SLD-0
  6
Continuous
 62
   179
100
AcDbLine
 10
197.97672
 20
63.591007
 30
0.0
 11
197.97672
 21
73.091007
 31
0.0
  0
LINE
  5
23A
330
1F
100
AcDbEntity
  8
SLD-0
  6
Continuous
 62
   179
100
AcDbLine
 10
120.97672
 20
73.591007
 30
0.0
 11
119.97672
 21
74.591007
 31
0.0
  0
LINE
  5
23B
330
1F
100
AcDbEntity
  8
SLD-0
  6
Continuous
 62
   179
100
AcDbLine
 10
194.97672
 20
90.591011
 30
0.0
 11
120.97671
 21
90.591009
 31
0.0
  0
LINE
  5
23C
330
1F
100
AcDbEntity
  8
SLD-0
  6
Continuous
 62
   179
100
AcDbLine
 10
119.97671
 20
89.591008
 30
0.0
 11
119.97672
 21
82.091011
 31
0.0
  0
LINE
  5
23D
330
1F
100
AcDbEntity
  8
SLD-0
  6
Continuous
 62
   179
100
AcDbLine
 10
194.97671
 20
100.091014
 30
0.0
 11
195.47671
 21
100.591015
 31
0.0
  0
LINE
  5
23E
330
1F
100
AcDbEntity
  8
SLD-0
  6
CENTER
 62
   179
100
AcDbLine
 10
191.53372
 20
95.591011
 30
0.0
 11
200.20772
 21
95.591011
 31
0.0
  0
LINE
  5
23F
330
1F
100
AcDbEntity
  8
SLD-0
  6
Continuous
 62
   179
100
AcDbLine
 10
197.97672
 20
91.091011
 30
0.0
 11
194.97672
 21
91.091011
 31
0.0
  0
LINE
  5
240
330
1F
100
AcDbEntity
  8
SLD-0
  6
Continuous
 62
   179
100
AcDbLine
 10
197.97672
 20
100.591011
 30
0.0
 11
197.97672
 21
91.091011
 31
0.0
  0
LINE
  5
241
330
1F
100
AcDbEntity
  8
SLD-0
  6
Continuous
 62
   179
100
AcDbLine
 10
156.97672
 20
84.591011
 30
0.0
 11
119.97672
 21
84.591011
 31
0.0
  0
LINE
  5
242
330
1F
100
AcDbEntity
  8
SLD-0
  6
Continuous
 62
   179
100
AcDbLine
 10
156.97672
 20
84.591011
 30
0.0
 11
156.97672
 21
90.591011
 31
0.0
  0
LINE
  5
243
330
1F
100
AcDbEntity
  8
SLD-0
  6
Continuous
 62
   179
100
AcDbLine
 10
122.97672
 20
73.591007
 30
0.0
 11
122.97672
 21
82.091011
 31
0.0
  0
LINE
  5
244
330
1F
100
AcDbEntity
  8
SLD-0
  6
Continuous
 62
   179
100
AcDbLine
 10
122.97672
 20
82.091011
 30
0.0
 11
122.97672
 21
90.591011
 31
0.0
  0
LINE
  5
245
330
1F
100
AcDbEntity
  8
SLD-0
  6
Continuous
 62
   179
100
AcDbLine
 10
193.97672
 20
99.841011
 30
0.0
 11
197.97672
 21
99.841011
 31
0.0
  0
LINE
  5
246
330
1F
100
AcDbEntity
  8
SLD-0
  6
Continuous
 62
   179
100
AcDbLine
 10
197.97672
 20
91.341011
 30
0.0
 11
193.97672
 21
91.341011
 31
0.0
  0
LINE
  5
247
330
1F
100
AcDbEntity
  8
SLD-0
  6
Continuous
 62
   179
100
AcDbLine
 10
192.97672
 20
92.341011
 30
0.0
 11
192.97672
 21
98.841011
 31
0.0
  0
LINE
  5
248
330
1F
100
AcDbEntity
  8
SLD-0
  6
Continuous
 62
   179
100
AcDbLine
 10
196.97672
 20
91.341011
 30
0.0
 11
196.97672
 21
99.841011
 31
0.0
  0
LINE
  5
249
330
1F
100
AcDbEntity
  8
SLD-0
  6
Continuous
 62
   179
100
AcDbLine
 10
194.97671
 20
188.09102
 30
0.0
 11
193.97671
 21
189.09102
 31
0.0
  0
LINE
  5
24A
330
1F
100
AcDbEntity
  8
SLD-0
  6
Continuous
 62
   179
100
AcDbLine
 10
193.97672
 20
189.091
 30
0.0
 11
185.97672
 21
189.091
 31
0.0
  0
LINE
  5
24B
330
1F
100
AcDbEntity
  8
SLD-0
  6
Continuous
 62
   179
100
AcDbLine
 10
194.97671
 20
176.09101
 30
0.0
 11
193.97671
 21
175.09101
 31
0.0
  0
LINE
  5
24C
330
1F
100
AcDbEntity
  8
SLD-0
  6
Continuous
 62
   179
100
AcDbLine
 10
193.97672
 20
175.091
 30
0.0
 11
185.97672
 21
175.091
 31
0.0
  0
LINE
  5
24D
330
1F
100
AcDbEntity
  8
SLD-0
  6
Continuous
 62
   179
100
AcDbLine
 10
181.97672
 20
185.591
 30
0.0
 11
182.97672
 21
185.591
 31
0.0
  0
LINE
  5
24E
330
1F
100
AcDbEntity
  8
SLD-0
  6
Continuous
 62
   179
100
AcDbLine
 10
181.97672
 20
178.591
 30
0.0
 11
182.97672
 21
178.591
 31
0.0
  0
LINE
  5
24F
330
1F
100
AcDbEntity
  8
SLD-0
  6
Continuous
 62
   179
100
AcDbLine
 10
182.97672
 20
185.591
 30
0.0
 11
182.97672
 21
178.591
 31
0.0
  0
LINE
  5
250
330
1F
100
AcDbEntity
  8
SLD-0
  6
Continuous
 62
   179
100
AcDbLine
 10
182.97671
 20
185.59101
 30
0.0
 11
185.97671
 21
189.09101
 31
0.0
  0
LINE
  5
251
330
1F
100
AcDbEntity
  8
SLD-0
  6
Continuous
 62
   179
100
AcDbLine
 10
182.97671
 20
178.59102
 30
0.0
 11
185.97671
 21
175.09102
 31
0.0
  0
LINE
  5
252
330
1F
100
AcDbEntity
  8
SLD-0
  6
Continuous
 62
   179
100
AcDbLine
 10
185.97672
 20
189.091
 30
0.0
 11
185.97672
 21
175.091
 31
0.0
  0
LINE
  5
253
330
1F
100
AcDbEntity
  8
SLD-0
  6
Continuous
 62
   179
100
AcDbLine
 10
193.97672
 20
189.091
 30
0.0
 11
193.97672
 21
175.091
 31
0.0
  0
LINE
  5
254
330
1F
100
AcDbEntity
  8
SLD-0
  6
Continuous
 62
   179
100
AcDbLine
 10
216.97672
 20
200.591
 30
0.0
 11
216.97672
 21
163.591
 31
0.0
  0
LINE
  5
255
330
1F
100
AcDbEntity
  8
SLD-0
  6
Continuous
 62
   179
100
AcDbLine
 10
260.47672
 20
200.591
 30
0.0
 11
201.97672
 21
200.591
 31
0.0
  0
LINE
  5
256
330
1F
100
AcDbEntity
  8
SLD-0
  6
Continuous
 62
   179
100
AcDbLine
 10
260.47672
 20
163.591
 30
0.0
 11
201.97672
 21
163.591
 31
0.0
  0
LINE
  5
257
330
1F
100
AcDbEntity
  8
SLD-0
  6
Continuous
 62
   179
100
AcDbLine
 10
270.97671
 20
191.09101
 30
0.0
 11
271.51261
 21
192.01921
 31
0.0
  0
LINE
  5
258
330
1F
100
AcDbEntity
  8
SLD-0
  6
Continuous
 62
   179
100
AcDbLine
 10
276.44082
 20
192.01922
 30
0.0
 11
276.97672
 21
191.091
 31
0.0
  0
LINE
  5
259
330
1F
100
AcDbEntity
  8
SLD-0
  6
Continuous
 62
   179
100
AcDbLine
 10
270.97672
 20
179.09101
 30
0.0
 11
271.51261
 21
178.16281
 31
0.0
  0
LINE
  5
25A
330
1F
100
AcDbEntity
  8
SLD-0
  6
Continuous
 62
   179
100
AcDbLine
 10
276.44081
 20
178.16281
 30
0.0
 11
276.97671
 21
179.09101
 31
0.0
  0
LINE
  5
25B
330
1F
100
AcDbEntity
  8
SLD-0
  6
Continuous
 62
   179
100
AcDbLine
 10
276.44082
 20
178.16281
 30
0.0
 11
271.51261
 21
178.16281
 31
0.0
  0
LINE
  5
25C
330
1F
100
AcDbEntity
  8
SLD-0
  6
Continuous
 62
   179
100
AcDbLine
 10
276.97672
 20
191.091
 30
0.0
 11
276.97672
 21
179.091
 31
0.0
  0
LINE
  5
25D
330
1F
100
AcDbEntity
  8
SLD-0
  6
Continuous
 62
   179
100
AcDbLine
 10
276.44082
 20
192.01921
 30
0.0
 11
271.51261
 21
192.01921
 31
0.0
  0
LINE
  5
25E
330
1F
100
AcDbEntity
  8
SLD-0
  6
Continuous
 62
   179
100
AcDbLine
 10
276.44082
 20
188.55511
 30
0.0
 11
271.51262
 21
188.55511
 31
0.0
  0
LINE
  5
25F
330
1F
100
AcDbEntity
  8
SLD-0
  6
Continuous
 62
   179
100
AcDbLine
 10
276.44082
 20
181.62691
 30
0.0
 11
271.51262
 21
181.62691
 31
0.0
  0
LINE
  5
260
330
1F
100
AcDbEntity
  8
SLD-0
  6
Continuous
 62
   179
100
AcDbLine
 10
276.97672
 20
179.091
 30
0.0
 11
290.97672
 21
179.091
 31
0.0
  0
LINE
  5
261
330
1F
100
AcDbEntity
  8
SLD-0
  6
Continuous
 62
   179
100
AcDbLine
 10
280.97672
 20
192.09101
 30
0.0
 11
279.97672
 21
191.091
 31
0.0
  0
LINE
  5
262
330
1F
100
AcDbEntity
  8
SLD-0
  6
Continuous
 62
   179
100
AcDbLine
 10
282.47672
 20
189.091
 30
0.0
 11
282.47672
 21
180.091
 31
0.0
  0
LINE
  5
263
330
1F
100
AcDbEntity
  8
SLD-0
  6
Continuous
 62
   179
100
AcDbLine
 10
282.47672
 20
180.091
 30
0.0
 11
290.97672
 21
180.091
 31
0.0
  0
LINE
  5
264
330
1F
100
AcDbEntity
  8
SLD-0
  6
Continuous
 62
   179
100
AcDbLine
 10
291.97672
 20
181.091
 30
0.0
 11
291.97672
 21
189.091
 31
0.0
  0
LINE
  5
265
330
1F
100
AcDbEntity
  8
SLD-0
  6
Continuous
 62
   179
100
AcDbLine
 10
291.97672
 20
189.091
 30
0.0
 11
282.47672
 21
189.091
 31
0.0
  0
LINE
  5
266
330
1F
100
AcDbEntity
  8
SLD-0
  6
Continuous
 62
   179
100
AcDbLine
 10
292.97672
 20
191.091
 30
0.0
 11
276.97672
 21
191.091
 31
0.0
  0
LINE
  5
267
330
1F
100
AcDbEntity
  8
SLD-0
  6
Continuous
 62
   179
100
AcDbLine
 10
291.97672
 20
189.091
 30
0.0
 11
292.97672
 21
191.091
 31
0.0
  0
LINE
  5
268
330
1F
100
AcDbEntity
  8
SLD-0
  6
Continuous
 62
   179
100
AcDbLine
 10
282.47672
 20
189.091
 30
0.0
 11
281.47672
 21
191.091
 31
0.0
  0
LINE
  5
269
330
1F
100
AcDbEntity
  8
SLD-0
  6
Continuous
 62
   179
100
AcDbLine
 10
282.47671
 20
180.09101
 30
0.0
 11
281.47671
 21
179.09101
 31
0.0
  0
LINE
  5
26A
330
1F
100
AcDbEntity
  8
SLD-0
  6
Continuous
 62
   179
100
AcDbLine
 10
281.47672
 20
191.091
 30
0.0
 11
281.47672
 21
179.091
 31
0.0
  0
LINE
  5
26B
330
1F
100
AcDbEntity
  8
SLD-0
  6
Continuous
 62
   179
100
AcDbLine
 10
283.97672
 20
203.091
 30
0.0
 11
283.97672
 21
201.591
 31
0.0
  0
LINE
  5
26C
330
1F
100
AcDbEntity
  8
SLD-0
  6
Continuous
 62
   179
100
AcDbLine
 10
289.97672
 20
203.091
 30
0.0
 11
289.97672
 21
201.591
 31
0.0
  0
LINE
  5
26D
330
1F
100
AcDbEntity
  8
SLD-0
  6
Continuous
 62
   179
100
AcDbLine
 10
280.97672
 20
201.591
 30
0.0
 11
280.97672
 21
191.091
 31
0.0
  0
LINE
  5
26E
330
1F
100
AcDbEntity
  8
SLD-0
  6
Continuous
 62
   179
100
AcDbLine
 10
292.97672
 20
201.591
 30
0.0
 11
292.97672
 21
181.091
 31
0.0
  0
LINE
  5
26F
330
1F
100
AcDbEntity
  8
SLD-0
  6
Continuous
 62
   179
100
AcDbLine
 10
280.97672
 20
201.591
 30
0.0
 11
292.97672
 21
201.591
 31
0.0
  0
LINE
  5
270
330
1F
100
AcDbEntity
  8
SLD-0
  6
Continuous
 62
   179
100
AcDbLine
 10
280.97672
 20
200.591
 30
0.0
 11
292.97672
 21
200.591
 31
0.0
  0
LINE
  5
271
330
1F
100
AcDbEntity
  8
SLD-0
  6
Continuous
 62
   179
100
AcDbLine
 10
280.97672
 20
198.591
 30
0.0
 11
292.97672
 21
198.591
 31
0.0
  0
LINE
  5
272
330
1F
100
AcDbEntity
  8
SLD-0
  6
CENTER
 62
   179
100
AcDbLine
 10
286.97672
 20
178.101
 30
0.0
 11
286.97672
 21
204.86543
 31
0.0
  0
LINE
  5
273
330
1F
100
AcDbEntity
  8
SLD-0
  6
Continuous
 62
   179
100
AcDbLine
 10
204.97672
 20
163.591
 30
0.0
 11
204.97672
 21
159.591
 31
0.0
  0
LINE
  5
274
330
1F
100
AcDbEntity
  8
SLD-0
  6
Continuous
 62
   179
100
AcDbLine
 10
205.97672
 20
158.591
 30
0.0
 11
214.97672
 21
158.591
 31
0.0
  0
LINE
  5
275
330
1F
100
AcDbEntity
  8
SLD-0
  6
Continuous
 62
   179
100
AcDbLine
 10
213.97672
 20
159.591
 30
0.0
 11
213.97672
 21
163.591
 31
0.0
  0
LINE
  5
276
330
1F
100
AcDbEntity
  8
SLD-0
  6
Continuous
 62
   179
100
AcDbLine
 10
215.47671
 20
158.59101
 30
0.0
 11
216.40492
 21
158.05511
 31
0.0
  0
LINE
  5
277
330
1F
100
AcDbEntity
  8
SLD-0
  6
Continuous
 62
   179
100
AcDbLine
 10
216.40491
 20
154.12691
 30
0.0
 11
215.47671
 21
153.59102
 31
0.0
  0
LINE
  5
278
330
1F
100
AcDbEntity
  8
SLD-0
  6
Continuous
 62
   179
100
AcDbLine
 10
203.47671
 20
158.59101
 30
0.0
 11
202.54851
 21
158.05512
 31
0.0
  0
LINE
  5
279
330
1F
100
AcDbEntity
  8
SLD-0
  6
Continuous
 62
   179
100
AcDbLine
 10
202.54851
 20
154.12691
 30
0.0
 11
203.47671
 21
153.59101
 31
0.0
  0
LINE
  5
27A
330
1F
100
AcDbEntity
  8
SLD-0
  6
Continuous
 62
   179
100
AcDbLine
 10
204.97672
 20
159.591
 30
0.0
 11
213.97672
 21
159.591
 31
0.0
  0
LINE
  5
27B
330
1F
100
AcDbEntity
  8
SLD-0
  6
Continuous
 62
   179
100
AcDbLine
 10
206.47672
 20
159.591
 30
0.0
 11
206.47672
 21
158.591
 31
0.0
  0
LINE
  5
27C
330
1F
100
AcDbEntity
  8
SLD-0
  6
Continuous
 62
   179
100
AcDbLine
 10
212.47672
 20
159.591
 30
0.0
 11
212.47672
 21
158.591
 31
0.0
  0
LINE
  5
27D
330
1F
100
AcDbEntity
  8
SLD-0
  6
Continuous
 62
   179
100
AcDbLine
 10
203.47672
 20
153.591
 30
0.0
 11
203.47672
 21
140.591
 31
0.0
  0
LINE
  5
27E
330
1F
100
AcDbEntity
  8
SLD-0
  6
Continuous
 62
   179
100
AcDbLine
 10
230.47672
 20
150.841
 30
0.0
 11
231.47672
 21
150.841
 31
0.0
  0
LINE
  5
27F
330
1F
100
AcDbEntity
  8
SLD-0
  6
Continuous
 62
   179
100
AcDbLine
 10
230.47672
 20
142.341
 30
0.0
 11
231.47672
 21
142.341
 31
0.0
  0
LINE
  5
280
330
1F
100
AcDbEntity
  8
SLD-0
  6
Continuous
 62
   179
100
AcDbLine
 10
202.54851
 20
154.12691
 30
0.0
 11
202.54851
 21
158.05512
 31
0.0
  0
LINE
  5
281
330
1F
100
AcDbEntity
  8
SLD-0
  6
Continuous
 62
   179
100
AcDbLine
 10
206.01262
 20
154.12691
 30
0.0
 11
206.01262
 21
158.05511
 31
0.0
  0
LINE
  5
282
330
1F
100
AcDbEntity
  8
SLD-0
  6
Continuous
 62
   179
100
AcDbLine
 10
212.94081
 20
154.12691
 30
0.0
 11
212.94081
 21
158.05511
 31
0.0
  0
LINE
  5
283
330
1F
100
AcDbEntity
  8
SLD-0
  6
Continuous
 62
   179
100
AcDbLine
 10
216.40491
 20
154.12691
 30
0.0
 11
216.40492
 21
158.05511
 31
0.0
  0
LINE
  5
284
330
1F
100
AcDbEntity
  8
SLD-0
  6
Continuous
 62
   179
100
AcDbLine
 10
230.47672
 20
153.591
 30
0.0
 11
203.47672
 21
153.591
 31
0.0
  0
LINE
  5
285
330
1F
100
AcDbEntity
  8
SLD-0
  6
Continuous
 62
   179
100
AcDbLine
 10
230.47672
 20
153.591
 30
0.0
 11
230.47672
 21
139.591
 31
0.0
  0
LINE
  5
286
330
1F
100
AcDbEntity
  8
SLD-0
  6
Continuous
 62
   179
100
AcDbLine
 10
203.47672
 20
140.591
 30
0.0
 11
220.47672
 21
140.591
 31
0.0
  0
LINE
  5
287
330
1F
100
AcDbEntity
  8
SLD-0
  6
Continuous
 62
   179
100
AcDbLine
 10
221.47672
 20
139.591
 30
0.0
 11
230.47672
 21
139.591
 31
0.0
  0
LINE
  5
288
330
1F
100
AcDbEntity
  8
SLD-0
  6
Continuous
 62
   179
100
AcDbLine
 10
220.47671
 20
140.59101
 30
0.0
 11
221.47672
 21
139.591
 31
0.0
  0
LINE
  5
289
330
1F
100
AcDbEntity
  8
SLD-0
  6
Continuous
 62
   179
100
AcDbLine
 10
221.47672
 20
148.591
 30
0.0
 11
214.94081
 21
148.591
 31
0.0
  0
LINE
  5
28A
330
1F
100
AcDbEntity
  8
SLD-0
  6
Continuous
 62
   179
100
AcDbLine
 10
214.94081
 20
144.591
 30
0.0
 11
221.47672
 21
144.591
 31
0.0
  0
LINE
  5
28B
330
1F
100
AcDbEntity
  8
SLD-0
  6
Continuous
 62
   179
100
AcDbLine
 10
221.47672
 20
153.591
 30
0.0
 11
221.47672
 21
148.591
 31
0.0
  0
LINE
  5
28C
330
1F
100
AcDbEntity
  8
SLD-0
  6
Continuous
 62
   179
100
AcDbLine
 10
221.47672
 20
144.591
 30
0.0
 11
221.47672
 21
139.591
 31
0.0
  0
LINE
  5
28D
330
1F
100
AcDbEntity
  8
SLD-0
  6
Continuous
 62
   179
100
AcDbLine
 10
215.47672
 20
148.591
 30
0.0
 11
215.47672
 21
153.591
 31
0.0
  0
LINE
  5
28E
330
1F
100
AcDbEntity
  8
SLD-0
  6
Continuous
 62
   179
100
AcDbLine
 10
215.47672
 20
144.591
 30
0.0
 11
215.47672
 21
140.591
 31
0.0
  0
LINE
  5
28F
330
1F
100
AcDbEntity
  8
SLD-0
  6
Continuous
 62
   179
100
AcDbLine
 10
215.47672
 20
152.591
 30
0.0
 11
220.47672
 21
152.591
 31
0.0
  0
LINE
  5
290
330
1F
100
AcDbEntity
  8
SLD-0
  6
Continuous
 62
   179
100
AcDbLine
 10
220.47672
 20
152.591
 30
0.0
 11
220.47672
 21
148.591
 31
0.0
  0
LINE
  5
291
330
1F
100
AcDbEntity
  8
SLD-0
  6
Continuous
 62
   179
100
AcDbLine
 10
220.47672
 20
152.591
 30
0.0
 11
221.47672
 21
153.591
 31
0.0
  0
LINE
  5
292
330
1F
100
AcDbEntity
  8
SLD-0
  6
Continuous
 62
   179
100
AcDbLine
 10
220.47672
 20
144.591
 30
0.0
 11
220.47672
 21
140.591
 31
0.0
  0
LINE
  5
293
330
1F
100
AcDbEntity
  8
SLD-0
  6
Continuous
 62
   179
100
AcDbLine
 10
203.97672
 20
140.591
 30
0.0
 11
203.97672
 21
138.59101
 31
0.0
  0
LINE
  5
294
330
1F
100
AcDbEntity
  8
SLD-0
  6
Continuous
 62
   179
100
AcDbLine
 10
203.97672
 20
138.59101
 30
0.0
 11
214.97672
 21
138.59101
 31
0.0
  0
LINE
  5
295
330
1F
100
AcDbEntity
  8
SLD-0
  6
Continuous
 62
   179
100
AcDbLine
 10
214.97672
 20
138.59101
 30
0.0
 11
214.97672
 21
140.591
 31
0.0
  0
LINE
  5
296
330
1F
100
AcDbEntity
  8
SLD-0
  6
Continuous
 62
   179
100
AcDbLine
 10
204.47672
 20
138.59101
 30
0.0
 11
203.70321
 21
138.14443
 31
0.0
  0
LINE
  5
297
330
1F
100
AcDbEntity
  8
SLD-0
  6
Continuous
 62
   179
100
AcDbLine
 10
203.70322
 20
138.14442
 30
0.0
 11
203.70322
 21
136.03759
 31
0.0
  0
LINE
  5
298
330
1F
100
AcDbEntity
  8
SLD-0
  6
Continuous
 62
   179
100
AcDbLine
 10
203.7032
 20
136.03759
 30
0.0
 11
204.47671
 21
135.591
 31
0.0
  0
LINE
  5
299
330
1F
100
AcDbEntity
  8
SLD-0
  6
Continuous
 62
   179
100
AcDbLine
 10
204.47671
 20
135.591
 30
0.0
 11
214.47672
 21
135.59101
 31
0.0
  0
LINE
  5
29A
330
1F
100
AcDbEntity
  8
SLD-0
  6
Continuous
 62
   179
100
AcDbLine
 10
214.47672
 20
135.59101
 30
0.0
 11
215.25023
 21
136.03759
 31
0.0
  0
LINE
  5
29B
330
1F
100
AcDbEntity
  8
SLD-0
  6
Continuous
 62
   179
100
AcDbLine
 10
215.25021
 20
136.03759
 30
0.0
 11
215.25021
 21
138.14442
 31
0.0
  0
LINE
  5
29C
330
1F
100
AcDbEntity
  8
SLD-0
  6
Continuous
 62
   179
100
AcDbLine
 10
215.25021
 20
138.14442
 30
0.0
 11
214.47671
 21
138.59101
 31
0.0
  0
LINE
  5
29D
330
1F
100
AcDbEntity
  8
SLD-0
  6
Continuous
 62
   179
100
AcDbLine
 10
206.58997
 20
138.14442
 30
0.0
 11
206.58997
 21
136.03759
 31
0.0
  0
LINE
  5
29E
330
1F
100
AcDbEntity
  8
SLD-0
  6
Continuous
 62
   179
100
AcDbLine
 10
212.36346
 20
138.14442
 30
0.0
 11
212.36346
 21
136.03759
 31
0.0
  0
LINE
  5
29F
330
1F
100
AcDbEntity
  8
SLD-0
  6
Continuous
 62
   179
100
AcDbLine
 10
206.97672
 20
135.59101
 30
0.0
 11
206.97672
 21
134.59101
 31
0.0
  0
LINE
  5
2A0
330
1F
100
AcDbEntity
  8
SLD-0
  6
Continuous
 62
   179
100
AcDbLine
 10
211.97672
 20
135.59101
 30
0.0
 11
211.97672
 21
134.59101
 31
0.0
  0
LINE
  5
2A1
330
1F
100
AcDbEntity
  8
SLD-0
  6
Continuous
 62
   179
100
AcDbLine
 10
204.97672
 20
132.59101
 30
0.0
 11
204.97672
 21
128.59101
 31
0.0
  0
LINE
  5
2A2
330
1F
100
AcDbEntity
  8
SLD-0
  6
Continuous
 62
   179
100
AcDbLine
 10
204.97672
 20
128.59101
 30
0.0
 11
213.97672
 21
128.59101
 31
0.0
  0
LINE
  5
2A3
330
1F
100
AcDbEntity
  8
SLD-0
  6
Continuous
 62
   179
100
AcDbLine
 10
213.97672
 20
128.59101
 30
0.0
 11
213.97672
 21
132.59101
 31
0.0
  0
LINE
  5
2A4
330
1F
100
AcDbEntity
  8
SLD-0
  6
Continuous
 62
   179
100
AcDbLine
 10
201.97672
 20
100.591011
 30
0.0
 11
201.97672
 21
63.591007
 31
0.0
  0
LINE
  5
2A5
330
1F
100
AcDbEntity
  8
SLD-0
  6
Continuous
 62
   179
100
AcDbLine
 10
216.97672
 20
100.591011
 30
0.0
 11
216.97672
 21
63.591007
 31
0.0
  0
LINE
  5
2A6
330
1F
100
AcDbEntity
  8
SLD-0
  6
Continuous
 62
   179
100
AcDbLine
 10
260.47672
 20
100.591011
 30
0.0
 11
260.47672
 21
63.591007
 31
0.0
  0
LINE
  5
2A7
330
1F
100
AcDbEntity
  8
SLD-0
  6
Continuous
 62
   179
100
AcDbLine
 10
260.47672
 20
100.591011
 30
0.0
 11
195.47671
 21
100.591015
 31
0.0
  0
LINE
  5
2A8
330
1F
100
AcDbEntity
  8
SLD-0
  6
Continuous
 62
   179
100
AcDbLine
 10
260.47672
 20
63.591007
 30
0.0
 11
195.47671
 21
63.591012
 31
0.0
  0
LINE
  5
2A9
330
1F
100
AcDbEntity
  8
SLD-0
  6
CENTER
 62
   179
100
AcDbLine
 10
209.47672
 20
165.091
 30
0.0
 11
209.47672
 21
126.09101
 31
0.0
  0
LINE
  5
2AA
330
1F
100
AcDbEntity
  8
SLD-0
  6
Continuous
 62
   179
100
AcDbLine
 10
69.97672
 20
85.591011
 30
0.0
 11
69.97672
 21
78.591011
 31
0.0
  0
LINE
  5
2AB
330
1F
100
AcDbEntity
  8
SLD-0
  6
Continuous
 62
   179
100
AcDbLine
 10
119.97672
 20
198.091
 30
0.0
 11
118.97672
 21
198.091
 31
0.0
  0
LINE
  5
2AC
330
1F
100
AcDbEntity
  8
SLD-0
  6
CENTER
 62
   179
100
AcDbLine
 10
207.97672
 20
146.591
 30
0.0
 11
234.97672
 21
146.591
 31
0.0
  0
LINE
  5
2AD
330
1F
100
AcDbEntity
  8
SLD-0
  6
Continuous
 62
   179
100
AcDbLine
 10
402.5
 20
285.5
 30
0.0
 11
402.5
 21
11.5
 31
0.0
  0
LINE
  5
2AE
330
1F
100
AcDbEntity
  8
SLD-0
  6
Continuous
 62
   179
100
AcDbLine
 10
17.5
 20
11.5
 30
0.0
 11
402.5
 21
11.5
 31
0.0
  0
LINE
  5
2AF
330
1F
100
AcDbEntity
  8
SLD-0
  6
Continuous
 62
   179
100
AcDbLine
 10
17.5
 20
285.5
 30
0.0
 11
17.5
 21
11.5
 31
0.0
  0
LINE
  5
2B0
330
1F
100
AcDbEntity
  8
SLD-0
  6
Continuous
 62
   179
100
AcDbLine
 10
17.5
 20
285.5
 30
0.0
 11
402.5
 21
285.5
 31
0.0
  0
LINE
  5
2B1
330
1F
100
AcDbEntity
  8
SLD-0
  6
Continuous
 62
   179
100
AcDbLine
 10
334.5
 20
50.0
 30
0.0
 11
334.5
 21
11.5
 31
0.0
  0
LINE
  5
2B2
330
1F
100
AcDbEntity
  8
SLD-0
  6
Continuous
 62
   179
100
AcDbLine
 10
334.5
 20
24.0
 30
0.0
 11
402.5
 21
24.0
 31
0.0
  0
LINE
  5
2B3
330
1F
100
AcDbEntity
  8
SLD-0
  6
Continuous
 62
   179
100
AcDbLine
 10
334.5
 20
36.5
 30
0.0
 11
402.5
 21
36.5
 31
0.0
  0
LINE
  5
2B4
330
1F
100
AcDbEntity
  8
SLD-0
  6
Continuous
 62
   179
100
AcDbLine
 10
334.5
 20
50.0
 30
0.0
 11
402.5
 21
50.0
 31
0.0
  0
LINE
  5
2B5
330
1F
100
AcDbEntity
  8
SLD-0
  6
Continuous
 62
   179
100
AcDbLine
 10
17.29999
 20
11.3
 30
0.0
 11
402.7
 21
11.3
 31
0.0
  0
LINE
  5
2B6
330
1F
100
AcDbEntity
  8
SLD-0
  6
Continuous
 62
   179
100
AcDbLine
 10
402.7
 20
285.70001
 30
0.0
 11
402.7
 21
11.3
 31
0.0
  0
LINE
  5
2B7
330
1F
100
AcDbEntity
  8
SLD-0
  6
Continuous
 62
   179
100
AcDbLine
 10
17.29999
 20
285.70001
 30
0.0
 11
402.7
 21
285.70001
 31
0.0
  0
LINE
  5
2B8
330
1F
100
AcDbEntity
  8
SLD-0
  6
Continuous
 62
   179
100
AcDbLine
 10
17.29999
 20
285.70001
 30
0.0
 11
17.29999
 21
11.3
 31
0.0
  0
LINE
  5
2B9
330
1F
100
AcDbEntity
  8
SLD-0
  6
Continuous
 62
   179
100
AcDbLine
 10
69.97672
 20
137.12967
 30
0.0
 11
53.47586
 21
137.12967
 31
0.0
  0
LINE
  5
2BA
330
1F
100
AcDbEntity
  8
SLD-0
  6
Continuous
 62
   179
100
AcDbLine
 10
69.97672
 20
137.12967
 30
0.0
 11
81.97672
 21
137.12967
 31
0.0
  0
LINE
  5
2BB
330
1F
100
AcDbEntity
  8
SLD-0
  6
Continuous
 62
   179
100
AcDbLine
 10
69.97672
 20
137.12967
 30
0.0
 11
72.97672
 21
138.12967
 31
0.0
  0
LINE
  5
2BC
330
1F
100
AcDbEntity
  8
SLD-0
  6
Continuous
 62
   179
100
AcDbLine
 10
69.97672
 20
137.12967
 30
0.0
 11
72.97672
 21
136.12967
 31
0.0
  0
LINE
  5
2BD
330
1F
100
AcDbEntity
  8
SLD-0
  6
Continuous
 62
   179
100
AcDbLine
 10
81.97672
 20
137.12967
 30
0.0
 11
78.97672
 21
136.12967
 31
0.0
  0
LINE
  5
2BE
330
1F
100
AcDbEntity
  8
SLD-0
  6
Continuous
 62
   179
100
AcDbLine
 10
81.97672
 20
137.12967
 30
0.0
 11
78.97672
 21
138.12967
 31
0.0
  0
LINE
  5
2BF
330
1F
100
AcDbEntity
  8
SLD-0
  6
Continuous
 62
   179
100
AcDbLine
 10
69.97672
 20
171.091
 30
0.0
 11
69.97672
 21
134.84367
 31
0.0
  0
LINE
  5
2C0
330
1F
100
AcDbEntity
  8
SLD-0
  6
Continuous
 62
   179
100
AcDbLine
 10
81.97672
 20
172.69101
 30
0.0
 11
81.97672
 21
134.84367
 31
0.0
  0
ARC
  5
2C1
330
1F
100
AcDbEntity
  8
SLD-0
  6
Continuous
 62
   179
100
AcDbCircle
 10
108.97672
 20
190.091
 30
0.0
 40
3.0
100
AcDbArc
 50
0.0
 51
90.0
  0
ARC
  5
2C2
330
1F
100
AcDbEntity
  8
SLD-0
  6
Continuous
 62
   179
100
AcDbCircle
 10
74.47672
 20
190.091
 30
0.0
 40
3.0
100
AcDbArc
 50
90.0
 51
180.0
  0
ARC
  5
2C3
330
1F
100
AcDbEntity
  8
SLD-0
  6
Continuous
 62
   179
100
AcDbCircle
 10
193.97672
 20
65.341007
 30
0.0
 40
1.0
100
AcDbArc
 50
180.0
 51
270.0
  0
ARC
  5
2C4
330
1F
100
AcDbEntity
  8
SLD-0
  6
Continuous
 62
   179
100
AcDbCircle
 10
193.97672
 20
71.841007
 30
0.0
 40
1.0
100
AcDbArc
 50
90.0
 51
180.0
  0
ARC
  5
2C5
330
1F
100
AcDbEntity
  8
SLD-0
  6
Continuous
 62
   179
100
AcDbCircle
 10
266.97672
 20
98.591011
 30
0.0
 40
2.0
100
AcDbArc
 50
0.0
 51
90.0
  0
ARC
  5
2C6
330
1F
100
AcDbEntity
  8
SLD-0
  6
Continuous
 62
   179
100
AcDbCircle
 10
267.97672
 20
90.091011
 30
0.0
 40
1.0
100
AcDbArc
 50
0.0
 51
90.0
  0
ARC
  5
2C7
330
1F
100
AcDbEntity
  8
SLD-0
  6
Continuous
 62
   179
100
AcDbCircle
 10
266.97672
 20
65.591007
 30
0.0
 40
2.0
100
AcDbArc
 50
270.0
 51
0.0
  0
ARC
  5
2C8
330
1F
100
AcDbEntity
  8
SLD-0
  6
Continuous
 62
   179
100
AcDbCircle
 10
267.97672
 20
74.091007
 30
0.0
 40
1.0
100
AcDbArc
 50
270.0
 51
0.0
  0
ARC
  5
2C9
330
1F
100
AcDbEntity
  8
SLD-0
  6
Continuous
 62
   179
100
AcDbCircle
 10
267.47672
 20
98.841011
 30
0.0
 40
1.0
100
AcDbArc
 50
0.0
 51
90.0
  0
ARC
  5
2CA
330
1F
100
AcDbEntity
  8
SLD-0
  6
Continuous
 62
   179
100
AcDbCircle
 10
267.47672
 20
92.341011
 30
0.0
 40
1.0
100
AcDbArc
 50
270.0
 51
0.0
  0
ARC
  5
2CB
330
1F
100
AcDbEntity
  8
SLD-0
  6
Continuous
 62
   179
100
AcDbCircle
 10
267.47672
 20
71.841007
 30
0.0
 40
1.0
100
AcDbArc
 50
0.0
 51
90.0
  0
ARC
  5
2CC
330
1F
100
AcDbEntity
  8
SLD-0
  6
Continuous
 62
   179
100
AcDbCircle
 10
267.47672
 20
65.341007
 30
0.0
 40
1.0
100
AcDbArc
 50
270.0
 51
0.0
  0
ARC
  5
2CD
330
1F
100
AcDbEntity
  8
SLD-0
  6
Continuous
 62
   179
100
AcDbCircle
 10
265.2250511522
 20
82.0910106348
 30
0.0
 40
7.451664335422271
100
AcDbArc
 50
342.4120050652
 51
17.5879362983
  0
ARC
  5
2CE
330
1F
100
AcDbEntity
  8
SLD-0
  6
Continuous
 62
   179
100
AcDbCircle
 10
270.6831727111
 20
85.4685057216
 30
0.0
 40
1.993542492911445
100
AcDbArc
 50
325.6158126538
 51
0.0
  0
ARC
  5
2CF
330
1F
100
AcDbEntity
  8
SLD-0
  6
Continuous
 62
   179
100
AcDbCircle
 10
270.6831701738
 20
78.7135091189
 30
0.0
 40
1.993542210541932
100
AcDbArc
 50
0.0
 51
34.3841636274
  0
CIRCLE
  5
2D0
330
1F
100
AcDbEntity
  8
SLD-0
  6
Continuous
 62
   179
100
AcDbCircle
 10
341.476715
 20
195.591
 30
0.0
 40
4.249999999999943
  0
CIRCLE
  5
2D1
330
1F
100
AcDbEntity
  8
SLD-0
  6
Continuous
 62
   179
100
AcDbCircle
 10
368.476715
 20
195.591
 30
0.0
 40
4.25
  0
CIRCLE
  5
2D2
330
1F
100
AcDbEntity
  8
SLD-0
  6
Continuous
 62
   179
100
AcDbCircle
 10
368.476715
 20
168.591
 30
0.0
 40
4.25
  0
CIRCLE
  5
2D3
330
1F
100
AcDbEntity
  8
SLD-0
  6
Continuous
 62
   179
100
AcDbCircle
 10
341.476715
 20
168.591
 30
0.0
 40
4.249999999999943
  0
CIRCLE
  5
2D4
330
1F
100
AcDbEntity
  8
SLD-0
  6
Continuous
 62
   179
100
AcDbCircle
 10
354.976715
 20
172.091
 30
0.0
 40
3.9000001
  0
CIRCLE
  5
2D5
330
1F
100
AcDbEntity
  8
SLD-0
  6
Continuous
 62
   179
100
AcDbCircle
 10
354.976715
 20
172.091
 30
0.0
 40
2.5
  0
CIRCLE
  5
2D6
330
1F
100
AcDbEntity
  8
SLD-0
  6
Continuous
 62
   179
100
AcDbCircle
 10
354.976715
 20
172.091
 30
0.0
 40
2.099999899999943
  0
ARC
  5
2D7
330
1F
100
AcDbEntity
  8
SLD-0
  6
Continuous
 62
   179
100
AcDbCircle
 10
343.476715
 20
203.591
 30
0.0
 40
3.0
100
AcDbArc
 50
270.0
 51
0.0
  0
ARC
  5
2D8
330
1F
100
AcDbEntity
  8
SLD-0
  6
Continuous
 62
   179
100
AcDbCircle
 10
366.476715
 20
203.591
 30
0.0
 40
3.0
100
AcDbArc
 50
180.0
 51
270.0
  0
CIRCLE
  5
2D9
330
1F
100
AcDbEntity
  8
SLD-0
  6
Continuous
 62
   179
100
AcDbCircle
 10
126.97672
 20
201.091
 30
0.0
 40
3.750000000000014
  0
CIRCLE
  5
2DA
330
1F
100
AcDbEntity
  8
SLD-0
  6
Continuous
 62
   179
100
AcDbCircle
 10
148.97672
 20
201.091
 30
0.0
 40
3.75
  0
CIRCLE
  5
2DB
330
1F
100
AcDbEntity
  8
SLD-0
  6
Continuous
 62
   179
100
AcDbCircle
 10
126.97672
 20
169.591
 30
0.0
 40
3.750000000000014
  0
CIRCLE
  5
2DC
330
1F
100
AcDbEntity
  8
SLD-0
  6
Continuous
 62
   179
100
AcDbCircle
 10
148.97672
 20
169.591
 30
0.0
 40
3.75
  0
CIRCLE
  5
2DD
330
1F
100
AcDbEntity
  8
SLD-0
  6
Continuous
 62
   179
100
AcDbCircle
 10
126.97672
 20
192.19101
 30
0.0
 40
1.750000000000014
  0
CIRCLE
  5
2DE
330
1F
100
AcDbEntity
  8
SLD-0
  6
Continuous
 62
   179
100
AcDbCircle
 10
148.97672
 20
192.19101
 30
0.0
 40
1.75
  0
ARC
  5
2DF
330
1F
100
AcDbEntity
  8
SLD-0
  6
Continuous
 62
   179
100
AcDbCircle
 10
266.97672
 20
198.591
 30
0.0
 40
2.0
100
AcDbArc
 50
0.0
 51
90.0
  0
ARC
  5
2E0
330
1F
100
AcDbEntity
  8
SLD-0
  6
Continuous
 62
   179
100
AcDbCircle
 10
267.97672
 20
190.091
 30
0.0
 40
1.0
100
AcDbArc
 50
0.0
 51
90.0
  0
ARC
  5
2E1
330
1F
100
AcDbEntity
  8
SLD-0
  6
Continuous
 62
   179
100
AcDbCircle
 10
266.97672
 20
165.591
 30
0.0
 40
2.0
100
AcDbArc
 50
270.0
 51
0.0
  0
ARC
  5
2E2
330
1F
100
AcDbEntity
  8
SLD-0
  6
Continuous
 62
   179
100
AcDbCircle
 10
267.97672
 20
174.091
 30
0.0
 40
1.0
100
AcDbArc
 50
270.0
 51
0.0
  0
ARC
  5
2E3
330
1F
100
AcDbEntity
  8
SLD-0
  6
Continuous
 62
   179
100
AcDbCircle
 10
159.97672
 20
197.091
 30
0.0
 40
3.000000000000017
100
AcDbArc
 50
90.0
 51
180.0
  0
ARC
  5
2E4
330
1F
100
AcDbEntity
  8
SLD-0
  6
Continuous
 62
   179
100
AcDbCircle
 10
159.97672
 20
173.591
 30
0.0
 40
3.000000000000028
100
AcDbArc
 50
180.0
 51
270.0
  0
CIRCLE
  5
2E5
330
1F
100
AcDbEntity
  8
SLD-0
  6
Continuous
 62
   179
100
AcDbCircle
 10
148.97672
 20
201.091
 30
0.0
 40
3.5
  0
CIRCLE
  5
2E6
330
1F
100
AcDbEntity
  8
SLD-0
  6
Continuous
 62
   179
100
AcDbCircle
 10
126.97672
 20
201.091
 30
0.0
 40
3.500000000000014
  0
CIRCLE
  5
2E7
330
1F
100
AcDbEntity
  8
SLD-0
  6
Continuous
 62
   179
100
AcDbCircle
 10
126.97672
 20
169.591
 30
0.0
 40
3.500000000000014
  0
CIRCLE
  5
2E8
330
1F
100
AcDbEntity
  8
SLD-0
  6
Continuous
 62
   179
100
AcDbCircle
 10
148.97672
 20
169.591
 30
0.0
 40
3.5
  0
ARC
  5
2E9
330
1F
100
AcDbEntity
  8
SLD-0
  6
Continuous
 62
   179
100
AcDbCircle
 10
179.4283772104
 20
182.0909991157
 30
0.0
 40
7.451668826390698
100
AcDbArc
 50
162.41205
 51
197.5878910759
  0
ARC
  5
2EA
330
1F
100
AcDbEntity
  8
SLD-0
  6
Continuous
 62
   179
100
AcDbCircle
 10
173.97026
 20
185.46851
 30
0.0
 40
1.993541999999993
100
AcDbArc
 50
180.0
 51
214.38425
  0
ARC
  5
2EB
330
1F
100
AcDbEntity
  8
SLD-0
  6
Continuous
 62
   179
100
AcDbCircle
 10
173.97026
 20
178.71352
 30
0.0
 40
1.993542
100
AcDbArc
 50
145.61575
 51
180.0
  0
ARC
  5
2EC
330
1F
100
AcDbEntity
  8
SLD-0
  6
Continuous
 62
   179
100
AcDbCircle
 10
173.6831699407
 20
185.4685100406
 30
0.0
 40
1.993541928172572
100
AcDbArc
 50
325.6158600914
 51
0.0
  0
ARC
  5
2ED
330
1F
100
AcDbEntity
  8
SLD-0
  6
Continuous
 62
   179
100
AcDbCircle
 10
168.2250482461
 20
182.091000556
 30
0.0
 40
7.451664060118276
100
AcDbArc
 50
342.4120856903
 51
17.587954
  0
ARC
  5
2EE
330
1F
100
AcDbEntity
  8
SLD-0
  6
Continuous
 62
   179
100
AcDbCircle
 10
173.68317
 20
178.71352
 30
0.0
 40
1.993542000000037
100
AcDbArc
 50
0.0
 51
34.384248
  0
ARC
  5
2EF
330
1F
100
AcDbEntity
  8
SLD-0
  6
Continuous
 62
   179
100
AcDbCircle
 10
180.0213746048
 20
185.5551082791
 30
0.0
 40
2.04466094720059
100
AcDbArc
 50
180.0
 51
214.3841180508
  0
ARC
  5
2F0
330
1F
100
AcDbEntity
  8
SLD-0
  6
Continuous
 62
   179
100
AcDbCircle
 10
185.6194485598
 20
182.0910095435
 30
0.0
 40
7.642736720242795
100
AcDbArc
 50
162.4120565935
 51
197.5880148697
  0
ARC
  5
2F1
330
1F
100
AcDbEntity
  8
SLD-0
  6
Continuous
 62
   179
100
AcDbCircle
 10
180.02138
 20
178.62691
 30
0.0
 40
2.044657900000035
100
AcDbArc
 50
145.61575
 51
180.0
  0
ARC
  5
2F2
330
1F
100
AcDbEntity
  8
SLD-0
  6
Continuous
 62
   179
100
AcDbCircle
 10
179.9320496343
 20
185.5551082791
 30
0.0
 40
2.044660947200527
100
AcDbArc
 50
325.6158819492
 51
0.0
  0
ARC
  5
2F3
330
1F
100
AcDbEntity
  8
SLD-0
  6
Continuous
 62
   179
100
AcDbCircle
 10
174.3339785598
 20
182.0910004565
 30
0.0
 40
7.642736720242821
100
AcDbArc
 50
342.4120565935
 51
17.5880148697
  0
ARC
  5
2F4
330
1F
100
AcDbEntity
  8
SLD-0
  6
Continuous
 62
   179
100
AcDbCircle
 10
179.93205
 20
178.62691
 30
0.0
 40
2.044657900000004
100
AcDbArc
 50
0.0
 51
34.384248
  0
ARC
  5
2F5
330
1F
100
AcDbEntity
  8
SLD-0
  6
Continuous
 62
   179
100
AcDbCircle
 10
267.47672
 20
198.841
 30
0.0
 40
1.0
100
AcDbArc
 50
0.0
 51
90.0
  0
ARC
  5
2F6
330
1F
100
AcDbEntity
  8
SLD-0
  6
Continuous
 62
   179
100
AcDbCircle
 10
267.47672
 20
192.341
 30
0.0
 40
1.0
100
AcDbArc
 50
270.0
 51
0.0
  0
ARC
  5
2F7
330
1F
100
AcDbEntity
  8
SLD-0
  6
Continuous
 62
   179
100
AcDbCircle
 10
267.47672
 20
171.841
 30
0.0
 40
1.0
100
AcDbArc
 50
0.0
 51
90.0
  0
ARC
  5
2F8
330
1F
100
AcDbEntity
  8
SLD-0
  6
Continuous
 62
   179
100
AcDbCircle
 10
267.47672
 20
165.341
 30
0.0
 40
1.0
100
AcDbArc
 50
270.0
 51
0.0
  0
ARC
  5
2F9
330
1F
100
AcDbEntity
  8
SLD-0
  6
Continuous
 62
   179
100
AcDbCircle
 10
191.97672
 20
197.091
 30
0.0
 40
3.00000000000002
100
AcDbArc
 50
60.339851
 51
90.0
  0
ARC
  5
2FA
330
1F
100
AcDbEntity
  8
SLD-0
  6
Continuous
 62
   179
100
AcDbCircle
 10
193.97672
 20
165.341
 30
0.0
 40
1.0
100
AcDbArc
 50
180.0
 51
270.0
  0
ARC
  5
2FB
330
1F
100
AcDbEntity
  8
SLD-0
  6
Continuous
 62
   179
100
AcDbCircle
 10
193.97672
 20
171.841
 30
0.0
 40
1.0
100
AcDbArc
 50
90.0
 51
180.0
  0
ARC
  5
2FC
330
1F
100
AcDbEntity
  8
SLD-0
  6
Continuous
 62
   179
100
AcDbCircle
 10
191.97672
 20
173.591
 30
0.0
 40
3.000000000000028
100
AcDbArc
 50
270.0
 51
289.47122
  0
ARC
  5
2FD
330
1F
100
AcDbEntity
  8
SLD-0
  6
Continuous
 62
   179
100
AcDbCircle
 10
191.97672
 20
173.591
 30
0.0
 40
2.999999999999995
100
AcDbArc
 50
345.52249
 51
0.0
  0
ARC
  5
2FE
330
1F
100
AcDbEntity
  8
SLD-0
  6
Continuous
 62
   179
100
AcDbCircle
 10
265.2250482461
 20
172.091000556
 30
0.0
 40
7.451664060118302
100
AcDbArc
 50
342.4120856903
 51
17.587954
  0
ARC
  5
2FF
330
1F
100
AcDbEntity
  8
SLD-0
  6
Continuous
 62
   179
100
AcDbCircle
 10
270.6831699407
 20
175.4685100406
 30
0.0
 40
1.993541928172533
100
AcDbArc
 50
325.6158600914
 51
0.0
  0
ARC
  5
300
330
1F
100
AcDbEntity
  8
SLD-0
  6
Continuous
 62
   179
100
AcDbCircle
 10
270.68317
 20
168.71352
 30
0.0
 40
1.993541999999998
100
AcDbArc
 50
0.0
 51
34.384248
  0
ARC
  5
301
330
1F
100
AcDbEntity
  8
SLD-0
  6
Continuous
 62
   179
100
AcDbCircle
 10
193.97672
 20
192.341
 30
0.0
 40
1.0
100
AcDbArc
 50
180.0
 51
270.0
  0
ARC
  5
302
330
1F
100
AcDbEntity
  8
SLD-0
  6
Continuous
 62
   179
100
AcDbCircle
 10
193.97672
 20
198.841
 30
0.0
 40
1.0
100
AcDbArc
 50
90.0
 51
180.0
  0
ARC
  5
303
330
1F
100
AcDbEntity
  8
SLD-0
  6
Continuous
 62
     3
100
AcDbCircle
 10
139.97672
 20
222.09895
 30
0.0
 40
3.150010099999986
100
AcDbArc
 50
180.14437
 51
359.85563
  0
ARC
  5
304
330
1F
100
AcDbEntity
  8
SLD-0
  6
Continuous
 62
     3
100
AcDbCircle
 10
139.9767200591
 20
227.0830699999
 30
0.0
 40
3.150010040857158
100
AcDbArc
 50
0.144372
 51
179.8557604534
  0
ARC
  5
305
330
1F
100
AcDbEntity
  8
SLD-0
  6
Continuous
 62
     3
100
AcDbCircle
 10
179.97672
 20
222.09895
 30
0.0
 40
3.150010099999986
100
AcDbArc
 50
180.14437
 51
359.85563
  0
ARC
  5
306
330
1F
100
AcDbEntity
  8
SLD-0
  6
Continuous
 62
     3
100
AcDbCircle
 10
179.9767200591
 20
227.0830699999
 30
0.0
 40
3.150010040857187
100
AcDbArc
 50
0.1443720002
 51
179.8557604534
  0
ARC
  5
307
330
1F
100
AcDbEntity
  8
SLD-0
  6
Continuous
 62
     3
100
AcDbCircle
 10
366.476715
 20
215.091
 30
0.0
 40
3.0
100
AcDbArc
 50
270.0
 51
0.0
  0
ARC
  5
308
330
1F
100
AcDbEntity
  8
SLD-0
  6
Continuous
 62
     3
100
AcDbCircle
 10
352.726715
 20
216.091
 30
0.0
 40
1.0
100
AcDbArc
 50
90.0
 51
180.0
  0
ARC
  5
309
330
1F
100
AcDbEntity
  8
SLD-0
  6
Continuous
 62
     3
100
AcDbCircle
 10
359.226715
 20
216.091
 30
0.0
 40
1.0
100
AcDbArc
 50
0.0
 51
90.0
  0
ARC
  5
30A
330
1F
100
AcDbEntity
  8
SLD-0
  6
Continuous
 62
     3
100
AcDbCircle
 10
136.72672
 20
216.091
 30
0.0
 40
1.0
100
AcDbArc
 50
90.0
 51
180.0
  0
ARC
  5
30B
330
1F
100
AcDbEntity
  8
SLD-0
  6
Continuous
 62
     3
100
AcDbCircle
 10
143.22672
 20
216.091
 30
0.0
 40
1.0
100
AcDbArc
 50
0.0
 51
90.0
  0
ARC
  5
30C
330
1F
100
AcDbEntity
  8
SLD-0
  6
Continuous
 62
     3
100
AcDbCircle
 10
176.72672
 20
216.091
 30
0.0
 40
1.0
100
AcDbArc
 50
90.0
 51
180.0
  0
ARC
  5
30D
330
1F
100
AcDbEntity
  8
SLD-0
  6
Continuous
 62
     3
100
AcDbCircle
 10
183.22672
 20
216.091
 30
0.0
 40
1.0
100
AcDbArc
 50
0.0
 51
90.0
  0
CIRCLE
  5
30E
330
1F
100
AcDbEntity
  8
SLD-0
  6
Continuous
 62
   179
100
AcDbCircle
 10
99.97672
 20
82.591011
 30
0.0
 40
3.1500001
  0
CIRCLE
  5
30F
330
1F
100
AcDbEntity
  8
SLD-0
  6
Continuous
 62
   179
100
AcDbCircle
 10
99.97672
 20
186.19101
 30
0.0
 40
4.000000000000014
  0
CIRCLE
  5
310
330
1F
100
AcDbEntity
  8
SLD-0
  6
Continuous
 62
   179
100
AcDbCircle
 10
99.97672
 20
186.19101
 30
0.0
 40
0.8500000200000102
  0
ARC
  5
311
330
1F
100
AcDbEntity
  8
SLD-0
  6
Continuous
 62
   179
100
AcDbCircle
 10
369.476715
 20
196.591
 30
0.0
 40
4.0
100
AcDbArc
 50
0.0
 51
90.0
  0
ARC
  5
312
330
1F
100
AcDbEntity
  8
SLD-0
  6
Continuous
 62
   179
100
AcDbCircle
 10
362.976715
 20
199.591
 30
0.0
 40
1.000000000000001
100
AcDbArc
 50
0.0
 51
90.000003
  0
ARC
  5
313
330
1F
100
AcDbEntity
  8
SLD-0
  6
Continuous
 62
   179
100
AcDbCircle
 10
372.476715
 20
190.091
 30
0.0
 40
1.0
100
AcDbArc
 50
0.0
 51
90.0
  0
ARC
  5
314
330
1F
100
AcDbEntity
  8
SLD-0
  6
Continuous
 62
   179
100
AcDbCircle
 10
368.476715
 20
195.591
 30
0.0
 40
4.5
100
AcDbArc
 50
180.0
 51
270.0
  0
ARC
  5
315
330
1F
100
AcDbEntity
  8
SLD-0
  6
Continuous
 62
   179
100
AcDbCircle
 10
369.476715
 20
167.591
 30
0.0
 40
4.0
100
AcDbArc
 50
270.0
 51
0.0
  0
ARC
  5
316
330
1F
100
AcDbEntity
  8
SLD-0
  6
Continuous
 62
   179
100
AcDbCircle
 10
362.976715
 20
164.591
 30
0.0
 40
1.0
100
AcDbArc
 50
270.0
 51
0.0
  0
ARC
  5
317
330
1F
100
AcDbEntity
  8
SLD-0
  6
Continuous
 62
   179
100
AcDbCircle
 10
372.476715
 20
174.091
 30
0.0
 40
1.0
100
AcDbArc
 50
270.0
 51
0.0
  0
ARC
  5
318
330
1F
100
AcDbEntity
  8
SLD-0
  6
Continuous
 62
   179
100
AcDbCircle
 10
368.476715
 20
168.591
 30
0.0
 40
4.500000000000028
100
AcDbArc
 50
90.0
 51
180.0
  0
ARC
  5
319
330
1F
100
AcDbEntity
  8
SLD-0
  6
Continuous
 62
   179
100
AcDbCircle
 10
340.476715
 20
196.591
 30
0.0
 40
4.0
100
AcDbArc
 50
90.0
 51
180.0
  0
ARC
  5
31A
330
1F
100
AcDbEntity
  8
SLD-0
  6
Continuous
 62
   179
100
AcDbCircle
 10
346.976715
 20
199.591
 30
0.0
 40
1.000000000000001
100
AcDbArc
 50
90.000003
 51
180.0
  0
ARC
  5
31B
330
1F
100
AcDbEntity
  8
SLD-0
  6
Continuous
 62
   179
100
AcDbCircle
 10
337.476715
 20
190.091
 30
0.0
 40
1.000000000000015
100
AcDbArc
 50
90.0
 51
180.0
  0
ARC
  5
31C
330
1F
100
AcDbEntity
  8
SLD-0
  6
Continuous
 62
   179
100
AcDbCircle
 10
341.476715
 20
195.591
 30
0.0
 40
4.5
100
AcDbArc
 50
270.0
 51
0.0
  0
ARC
  5
31D
330
1F
100
AcDbEntity
  8
SLD-0
  6
Continuous
 62
   179
100
AcDbCircle
 10
340.476715
 20
167.591
 30
0.0
 40
4.0
100
AcDbArc
 50
180.0
 51
270.0
  0
ARC
  5
31E
330
1F
100
AcDbEntity
  8
SLD-0
  6
Continuous
 62
   179
100
AcDbCircle
 10
346.976715
 20
164.591
 30
0.0
 40
1.0
100
AcDbArc
 50
180.0
 51
270.0
  0
ARC
  5
31F
330
1F
100
AcDbEntity
  8
SLD-0
  6
Continuous
 62
   179
100
AcDbCircle
 10
337.476715
 20
174.091
 30
0.0
 40
1.000000000000015
100
AcDbArc
 50
180.0
 51
270.0
  0
ARC
  5
320
330
1F
100
AcDbEntity
  8
SLD-0
  6
Continuous
 62
   179
100
AcDbCircle
 10
341.476715
 20
168.591
 30
0.0
 40
4.500000000000028
100
AcDbArc
 50
0.0
 51
90.0
  0
ARC
  5
321
330
1F
100
AcDbEntity
  8
SLD-0
  6
Continuous
 62
   179
100
AcDbCircle
 10
193.97672
 20
92.341011
 30
0.0
 40
1.0
100
AcDbArc
 50
180.0
 51
270.0
  0
ARC
  5
322
330
1F
100
AcDbEntity
  8
SLD-0
  6
Continuous
 62
   179
100
AcDbCircle
 10
193.97672
 20
98.841011
 30
0.0
 40
1.0
100
AcDbArc
 50
90.0
 51
180.0
  0
ARC
  5
323
330
1F
100
AcDbEntity
  8
SLD-0
  6
Continuous
 62
   179
100
AcDbCircle
 10
282.4408204435
 20
185.0909998594
 30
0.0
 40
11.46410153475853
100
AcDbArc
 50
162.4120014004
 51
197.58796
  0
ARC
  5
324
330
1F
100
AcDbEntity
  8
SLD-0
  6
Continuous
 62
   179
100
AcDbCircle
 10
274.0437031004
 20
190.2871621217
 30
0.0
 40
3.06698324311048
100
AcDbArc
 50
180.0
 51
214.384329054
  0
ARC
  5
325
330
1F
100
AcDbEntity
  8
SLD-0
  6
Continuous
 62
   179
100
AcDbCircle
 10
274.0437007701
 20
179.894849473
 30
0.0
 40
3.066986066822598
100
AcDbArc
 50
145.6155167738
 51
180.0
  0
ARC
  5
326
330
1F
100
AcDbEntity
  8
SLD-0
  6
Continuous
 62
   179
100
AcDbCircle
 10
265.5126195565
 20
185.0909998594
 30
0.0
 40
11.46410153475848
100
AcDbArc
 50
342.41205
 51
17.5879985996
  0
ARC
  5
327
330
1F
100
AcDbEntity
  8
SLD-0
  6
Continuous
 62
   179
100
AcDbCircle
 10
273.9097303049
 20
190.2871597914
 30
0.0
 40
3.066987369453054
100
AcDbArc
 50
325.6157764479
 51
0.0
  0
ARC
  5
328
330
1F
100
AcDbEntity
  8
SLD-0
  6
Continuous
 62
   179
100
AcDbCircle
 10
273.9097326352
 20
179.8948518033
 30
0.0
 40
3.066990193157551
100
AcDbArc
 50
360.0
 51
34.3843777241
  0
ARC
  5
329
330
1F
100
AcDbEntity
  8
SLD-0
  6
Continuous
 62
   179
100
AcDbCircle
 10
290.97672
 20
181.091
 30
0.0
 40
2.0
100
AcDbArc
 50
270.0
 51
0.0
  0
ARC
  5
32A
330
1F
100
AcDbEntity
  8
SLD-0
  6
Continuous
 62
   179
100
AcDbCircle
 10
290.97672
 20
181.091
 30
0.0
 40
1.0
100
AcDbArc
 50
270.0
 51
0.0
  0
ARC
  5
32B
330
1F
100
AcDbEntity
  8
SLD-0
  6
Continuous
 62
   179
100
AcDbCircle
 10
209.4767205971
 20
147.1269081163
 30
0.0
 40
11.46410002390937
100
AcDbArc
 50
72.412047
 51
107.5879509575
  0
ARC
  5
32C
330
1F
100
AcDbEntity
  8
SLD-0
  6
Continuous
 62
   179
100
AcDbCircle
 10
214.6728681967
 20
155.5240226352
 30
0.0
 40
3.066990193157511
100
AcDbArc
 50
89.999989
 51
124.3843777241
  0
ARC
  5
32D
330
1F
100
AcDbEntity
  8
SLD-0
  6
Continuous
 62
   179
100
AcDbCircle
 10
204.2805618033
 20
155.5240226352
 30
0.0
 40
3.0669901931575
100
AcDbArc
 50
55.6156222759
 51
90.000016
  0
ARC
  5
32E
330
1F
100
AcDbEntity
  8
SLD-0
  6
Continuous
 62
   179
100
AcDbCircle
 10
209.4767205971
 20
165.0551118837
 30
0.0
 40
11.46410002390933
100
AcDbArc
 50
252.4120490425
 51
287.58795
  0
ARC
  5
32F
330
1F
100
AcDbEntity
  8
SLD-0
  6
Continuous
 62
   179
100
AcDbCircle
 10
214.672870527
 20
156.6579907701
 30
0.0
 40
3.066986066822574
100
AcDbArc
 50
235.6155167738
 51
270.00001
  0
ARC
  5
330
330
1F
100
AcDbEntity
  8
SLD-0
  6
Continuous
 62
   179
100
AcDbCircle
 10
204.280559473
 20
156.6579907701
 30
0.0
 40
3.066986066822568
100
AcDbArc
 50
269.99998
 51
304.3844832262
  0
ARC
  5
331
330
1F
100
AcDbEntity
  8
SLD-0
  6
Continuous
 62
   179
100
AcDbCircle
 10
214.94081
 20
146.591
 30
0.0
 40
2.000000000000002
100
AcDbArc
 50
90.0
 51
180.0
  0
ARC
  5
332
330
1F
100
AcDbEntity
  8
SLD-0
  6
Continuous
 62
   179
100
AcDbCircle
 10
214.94081
 20
146.591
 30
0.0
 40
2.000000000000002
100
AcDbArc
 50
180.0
 51
270.0
  0
ARC
  5
333
330
1F
100
AcDbEntity
  8
SLD-0
  6
Continuous
 62
   179
100
AcDbCircle
 10
209.4767209575
 20
145.1444230207
 30
0.0
 40
9.553415031167406
100
AcDbArc
 50
252.4120430017
 51
287.58795
  0
ARC
  5
334
330
1F
100
AcDbEntity
  8
SLD-0
  6
Continuous
 62
   179
100
AcDbCircle
 10
205.1465927437
 20
138.1468359906
 30
0.0
 40
2.555827958348004
100
AcDbArc
 50
270.0
 51
304.3842105539
  0
ARC
  5
335
330
1F
100
AcDbEntity
  8
SLD-0
  6
Continuous
 62
   179
100
AcDbCircle
 10
213.8068372563
 20
138.1468359906
 30
0.0
 40
2.555827958348004
100
AcDbArc
 50
235.6157894461
 51
270.0
  0
ARC
  5
336
330
1F
100
AcDbEntity
  8
SLD-0
  6
Continuous
 62
   179
100
AcDbCircle
 10
209.4767209575
 20
129.0375869793
 30
0.0
 40
9.553415031167445
100
AcDbArc
 50
72.412047
 51
107.5879569983
  0
ARC
  5
337
330
1F
100
AcDbEntity
  8
SLD-0
  6
Continuous
 62
   179
100
AcDbCircle
 10
205.14659
 20
136.03519
 30
0.0
 40
2.555823100000016
100
AcDbArc
 50
55.615754
 51
90.000003
  0
ARC
  5
338
330
1F
100
AcDbEntity
  8
SLD-0
  6
Continuous
 62
   179
100
AcDbCircle
 10
213.8068422608
 20
136.0351806548
 30
0.0
 40
2.5558190966693
100
AcDbArc
 50
90.000003
 51
124.3841760427
  0
CIRCLE
  5
339
330
1F
100
AcDbEntity
  8
SLD-0
  6
Continuous
 62
   179
100
AcDbCircle
 10
209.47672
 20
82.091011
 30
0.0
 40
4.863999799999988
  0
CIRCLE
  5
33A
330
1F
100
AcDbEntity
  8
SLD-0
  6
Continuous
 62
   179
100
AcDbCircle
 10
209.47672
 20
82.091011
 30
0.0
 40
4.283000000000016
  0
CIRCLE
  5
33B
330
1F
100
AcDbEntity
  8
SLD-0
  6
Continuous
 62
   179
100
AcDbCircle
 10
354.976715
 20
185.091
 30
0.0
 40
4.863999799999988
  0
CIRCLE
  5
33C
330
1F
100
AcDbEntity
  8
SLD-0
  6
Continuous
 62
   179
100
AcDbCircle
 10
354.976715
 20
185.091
 30
0.0
 40
4.282999999999959
  0
POINT
  5
33D
330
1F
100
AcDbEntity
  8
SLD-0
100
AcDbPoint
 10
17.5
 20
285.5
 30
0.0
  0
POINT
  5
33E
330
1F
100
AcDbEntity
  8
SLD-0
100
AcDbPoint
 10
17.5
 20
11.5
 30
0.0
  0
POINT
  5
33F
330
1F
100
AcDbEntity
  8
SLD-0
100
AcDbPoint
 10
402.5
 20
11.5
 30
0.0
  0
POINT
  5
340
330
1F
100
AcDbEntity
  8
SLD-0
100
AcDbPoint
 10
402.5
 20
285.5
 30
0.0
  0
MTEXT
  5
342
330
1F
100
AcDbEntity
  8
SLD-0
 62
     7
100
AcDbMText
 10
340.267814
 20
47.3131582496
 30
0.0
 40
4.8000002
 41
0.0
 71
     1
 72
     1
  1
ヒートエアニッパーセット
  7
SLDTEXTSTYLE2
 73
     1
 44
1.0
  0
MTEXT
  5
344
330
1F
100
AcDbEntity
  8
SLD-0
 62
     7
100
AcDbMText
 10
348.662584
 20
40.8502875369
 30
0.0
 40
3.2
 41
0.0
 71
     1
 72
     1
  1
（ＧＴ－ＮＫＨシリーズ）
  7
SLDTEXTSTYLE3
 73
     1
 44
1.0
  0
MTEXT
  5
346
330
1F
100
AcDbEntity
  8
SLD-0
 62
     7
100
AcDbMText
 10
348.966217
 20
31.4600892496
 30
0.0
 40
4.8000002
 41
0.0
 71
     1
 72
     1
  1
ＧＴ－ＮＫＨ１０
  7
SLDTEXTSTYLE4
 73
     1
 44
1.0
  0
MTEXT
  5
348
330
1F
100
AcDbEntity
  8
SLD-0
 62
     7
100
AcDbMText
 10
354.968347
 20
18.9128720496
 30
0.0
 40
4.8000002
 41
0.0
 71
     1
 72
     1
  1
０６０３５５
  7
SLDTEXTSTYLE5
 73
     1
 44
1.0
  0
MTEXT
  5
34A
330
1F
100
AcDbEntity
  8
SLD-0
 62
     7
100
AcDbMText
 10
53.47588
 20
145.3843895369
 30
0.0
 40
3.2
 41
0.0
 71
     1
 72
     1
  1
刃開き
  7
SLDTEXTSTYLE6
 73
     1
 44
1.0
  0
MTEXT
  5
34C
330
1F
100
AcDbEntity
  8
SLD-0
 62
     7
100
AcDbMText
 10
53.47588
 20
140.5843895369
 30
0.0
 40
3.2
 41
0.0
 71
     1
 72
     1
  1
最大１２
  7
SLDTEXTSTYLE7
 73
     1
 44
1.0
  0
INSERT
  5
34D
330
1F
100
AcDbEntity
  8
0
  6
Continuous
 62
     7
370
     0
100
AcDbBlockReference
  2
KOZU0001
 10
99.6673
 20
186.98271
 30
0.0
  0
INSERT
  5
34E
330
1F
100
AcDbEntity
  8
0
  6
Continuous
 62
     7
370
     0
100
AcDbBlockReference
  2
KOZU0002
 10
101.48413
 20
85.356907
 30
0.0
  0
INSERT
  5
34F
330
1F
100
AcDbEntity
  8
0
  6
Continuous
 62
     7
370
     0
100
AcDbBlockReference
  2
KOZU0003
 10
159.92792
 20
228.59746
 30
0.0
  0
ENDSEC
  0
SECTION
  2
OBJECTS
  0
DICTIONARY
  5
C
330
0
100
AcDbDictionary
281
     1
  3
ACAD_GROUP
350
D
  3
ACAD_LAYOUT
350
1A
  3
ACAD_MLINESTYLE
350
17
  3
ACAD_PLOTSETTINGS
350
19
  3
ACAD_PLOTSTYLENAME
350
E
  0
DICTIONARY
  5
D
102
{ACAD_REACTORS
330
C
102
}
330
C
100
AcDbDictionary
281
     1
  0
DICTIONARY
  5
1A
102
{ACAD_REACTORS
330
C
102
}
330
C
100
AcDbDictionary
281
     1
  3
Layout1
350
1E
  3
Layout2
350
26
  3
Model
350
22
  0
DICTIONARY
  5
17
102
{ACAD_REACTORS
330
C
102
}
330
C
100
AcDbDictionary
281
     1
  3
Standard
350
18
  0
DICTIONARY
  5
19
102
{ACAD_REACTORS
330
C
102
}
330
C
100
AcDbDictionary
281
     1
  0
ACDBDICTIONARYWDFLT
  5
E
102
{ACAD_REACTORS
330
C
102
}
330
C
100
AcDbDictionary
281
     1
  3
Normal
350
F
100
AcDbDictionaryWithDefault
340
F
  0
LAYOUT
  5
1E
102
{ACAD_REACTORS
330
1A
102
}
330
1A
100
AcDbPlotSettings
  1

  2

  4

  6

 40
0.0
 41
0.0
 42
0.0
 43
0.0
 44
0.0
 45
0.0
 46
0.0
 47
0.0
 48
0.0
 49
0.0
140
0.0
141
0.0
142
1.0
143
1.0
 70
   688
 72
     0
 73
     0
 74
     5
  7

 75
    16
147
1.0
148
0.0
149
0.0
100
AcDbLayout
  1
Layout1
 70
     1
 71
     1
 10
0.0
 20
0.0
 11
0.0
 21
0.0
 12
0.0
 22
0.0
 32
0.0
 14
0.0
 24
0.0
 34
0.0
 15
0.0
 25
0.0
 35
0.0
146
0.0
 13
0.0
 23
0.0
 33
0.0
 16
1.0
 26
0.0
 36
0.0
 17
0.0
 27
1.0
 37
0.0
 76
     0
330
1B
  0
LAYOUT
  5
26
102
{ACAD_REACTORS
330
1A
102
}
330
1A
100
AcDbPlotSettings
  1

  2

  4

  6

 40
0.0
 41
0.0
 42
0.0
 43
0.0
 44
0.0
 45
0.0
 46
0.0
 47
0.0
 48
0.0
 49
0.0
140
0.0
141
0.0
142
1.0
143
1.0
 70
   688
 72
     0
 73
     0
 74
     5
  7

 75
    16
147
1.0
148
0.0
149
0.0
100
AcDbLayout
  1
Layout2
 70
     1
 71
     2
 10
0.0
 20
0.0
 11
0.0
 21
0.0
 12
0.0
 22
0.0
 32
0.0
 14
0.0
 24
0.0
 34
0.0
 15
0.0
 25
0.0
 35
0.0
146
0.0
 13
0.0
 23
0.0
 33
0.0
 16
1.0
 26
0.0
 36
0.0
 17
0.0
 27
1.0
 37
0.0
 76
     0
330
23
  0
LAYOUT
  5
22
102
{ACAD_REACTORS
330
1A
102
}
330
1A
100
AcDbPlotSettings
  1

  2

  4

  6

 40
0.0
 41
0.0
 42
0.0
 43
0.0
 44
0.0
 45
0.0
 46
0.0
 47
0.0
 48
0.0
 49
0.0
140
0.0
141
0.0
142
1.0
143
1.0
 70
  1712
 72
     0
 73
     0
 74
     0
  7

 75
     0
147
1.0
148
0.0
149
0.0
100
AcDbLayout
  1
Model
 70
     1
 71
     0
 10
0.0
 20
0.0
 11
0.0
 21
0.0
 12
0.0
 22
0.0
 32
0.0
 14
0.0
 24
0.0
 34
0.0
 15
420.0
 25
297.0
 35
0.0
146
0.0
 13
0.0
 23
0.0
 33
0.0
 16
1.0
 26
0.0
 36
0.0
 17
0.0
 27
1.0
 37
0.0
 76
     0
330
1F
  0
MLINESTYLE
  5
18
102
{ACAD_REACTORS
330
17
102
}
330
17
100
AcDbMlineStyle
  2
Standard
 70
     0
  3

 62
   256
 51
90.0
 52
90.0
 71
     2
 49
0.5
 62
   256
  6
BYLAYER
 49
-0.5
 62
   256
  6
BYLAYER
  0
ACDBPLACEHOLDER
  5
F
102
{ACAD_REACTORS
330
E
102
}
330
E
  0
ENDSEC
  0
EOF
