  0
SECTION
  2
HEADER
  9
$ACADVER
  1
AC1015
  9
$ACADMAINTVER
 70
     6
  9
$DWGCODEPAGE
  3
DOS932
  9
$INSBASE
 10
0.0
 20
0.0
 30
0.0
  9
$EXTMIN
 10
0.0
 20
0.0
 30
0.0
  9
$EXTMAX
 10
210.0
 20
297.0
 30
0.0
  9
$LIMMIN
 10
0.0
 20
0.0
  9
$LIMMAX
 10
0.0
 20
0.0
  9
$ORTHOMODE
 70
     0
  9
$REGENMODE
 70
     1
  9
$FILLMODE
 70
     1
  9
$QTEXTMODE
 70
     0
  9
$MIRRTEXT
 70
     1
  9
$LTSCALE
 40
1.0
  9
$ATTMODE
 70
     1
  9
$TEXTSIZE
 40
3.5
  9
$TRACEWID
 40
1.0
  9
$TEXTSTYLE
  7
Standard
  9
$CLAYER
  8
0
  9
$CELTYPE
  6
ByLayer
  9
$CECOLOR
 62
   256
  9
$CELTSCALE
 40
1.0
  9
$DISPSILH
 70
     0
  9
$DIMSCALE
 40
1.0
  9
$DIMASZ
 40
3.0
  9
$DIMEXO
 40
1.0
  9
$DIMDLI
 40
3.75
  9
$DIMRND
 40
0.0
  9
$DIMDLE
 40
0.0
  9
$DIMEXE
 40
1.0
  9
$DIMTP
 40
0.0
  9
$DIMTM
 40
0.0
  9
$DIMTXT
 40
3.2
  9
$DIMCEN
 40
2.5
  9
$DIMTSZ
 40
0.0
  9
$DIMTOL
 70
     0
  9
$DIMLIM
 70
     0
  9
$DIMTIH
 70
     1
  9
$DIMTOH
 70
     1
  9
$DIMSE1
 70
     0
  9
$DIMSE2
 70
     0
  9
$DIMTAD
 70
     1
  9
$DIMZIN
 70
     1
  9
$DIMBLK
  1

  9
$DIMASO
 70
     1
  9
$DIMSHO
 70
     1
  9
$DIMPOST
  1

  9
$DIMAPOST
  1

  9
$DIMALT
 70
     0
  9
$DIMALTD
 70
     3
  9
$DIMALTF
 40
0.0393700787
  9
$DIMLFAC
 40
1.0
  9
$DIMTOFL
 70
     1
  9
$DIMTVP
 40
0.0
  9
$DIMTIX
 70
     0
  9
$DIMSOXD
 70
     0
  9
$DIMSAH
 70
     0
  9
$DIMBLK1
  1

  9
$DIMBLK2
  1

  9
$DIMSTYLE
  2
ISO-25
  9
$DIMCLRD
 70
     0
  9
$DIMCLRE
 70
     0
  9
$DIMCLRT
 70
     0
  9
$DIMTFAC
 40
1.0
  9
$DIMGAP
 40
1.524
  9
$DIMJUST
 70
     0
  9
$DIMSD1
 70
     0
  9
$DIMSD2
 70
     0
  9
$DIMTOLJ
 70
     0
  9
$DIMTZIN
 70
     1
  9
$DIMALTZ
 70
     0
  9
$DIMALTTZ
 70
     0
  9
$DIMUPT
 70
     0
  9
$DIMDEC
 70
     2
  9
$DIMTDEC
 70
     2
  9
$DIMALTU
 70
     2
  9
$DIMALTTD
 70
     3
  9
$DIMTXSTY
  7
Standard
  9
$DIMAUNIT
 70
     0
  9
$DIMADEC
 70
     0
  9
$DIMALTRND
 40
0.0
  9
$DIMAZIN
 70
     0
  9
$DIMDSEP
 70
    44
  9
$DIMATFIT
 70
     3
  9
$DIMFRAC
 70
     0
  9
$DIMLDRBLK
  1

  9
$DIMLUNIT
 70
     2
  9
$DIMLWD
 70
    -2
  9
$DIMLWE
 70
    -2
  9
$DIMTMOVE
 70
     0
  9
$LUNITS
 70
     2
  9
$LUPREC
 70
     4
  9
$SKETCHINC
 40
1.0
  9
$FILLETRAD
 40
10.0
  9
$AUNITS
 70
     0
  9
$AUPREC
 70
     0
  9
$MENU
  1
.
  9
$ELEVATION
 40
0.0
  9
$PELEVATION
 40
0.0
  9
$THICKNESS
 40
0.0
  9
$LIMCHECK
 70
     0
  9
$CHAMFERA
 40
10.0
  9
$CHAMFERB
 40
10.0
  9
$CHAMFERC
 40
20.0
  9
$CHAMFERD
 40
0.0
  9
$SKPOLY
 70
     0
  9
$TDCREATE
 40
2454307.562958079
  9
$TDUCREATE
 40
2454307.187958079
  9
$TDUPDATE
 40
2454307.56295809
  9
$TDUUPDATE
 40
2454307.18795809
  9
$TDINDWG
 40
0.0000000116
  9
$TDUSRTIMER
 40
0.0000000116
  9
$USRTIMER
 70
     1
  9
$ANGBASE
 50
0.0
  9
$ANGDIR
 70
     0
  9
$PDMODE
 70
     0
  9
$PDSIZE
 40
-1.0
  9
$PLINEWID
 40
0.0
  9
$SPLFRAME
 70
     0
  9
$SPLINETYPE
 70
     6
  9
$SPLINESEGS
 70
     8
  9
$HANDSEED
  5
10F
  9
$SURFTAB1
 70
     6
  9
$SURFTAB2
 70
     6
  9
$SURFTYPE
 70
     6
  9
$SURFU
 70
     6
  9
$SURFV
 70
     6
  9
$UCSBASE
  2

  9
$UCSNAME
  2

  9
$UCSORG
 10
0.0
 20
0.0
 30
0.0
  9
$UCSXDIR
 10
1.0
 20
0.0
 30
0.0
  9
$UCSYDIR
 10
0.0
 20
1.0
 30
0.0
  9
$UCSORTHOREF
  2

  9
$UCSORTHOVIEW
 70
     0
  9
$UCSORGTOP
 10
0.0
 20
0.0
 30
0.0
  9
$UCSORGBOTTOM
 10
0.0
 20
0.0
 30
0.0
  9
$UCSORGLEFT
 10
0.0
 20
0.0
 30
0.0
  9
$UCSORGRIGHT
 10
0.0
 20
0.0
 30
0.0
  9
$UCSORGFRONT
 10
0.0
 20
0.0
 30
0.0
  9
$UCSORGBACK
 10
0.0
 20
0.0
 30
0.0
  9
$PUCSBASE
  2

  9
$PUCSNAME
  2

  9
$PUCSORG
 10
0.0
 20
0.0
 30
0.0
  9
$PUCSXDIR
 10
1.0
 20
0.0
 30
0.0
  9
$PUCSYDIR
 10
0.0
 20
1.0
 30
0.0
  9
$PUCSORTHOREF
  2

  9
$PUCSORTHOVIEW
 70
     0
  9
$PUCSORGTOP
 10
0.0
 20
0.0
 30
0.0
  9
$PUCSORGBOTTOM
 10
0.0
 20
0.0
 30
0.0
  9
$PUCSORGLEFT
 10
0.0
 20
0.0
 30
0.0
  9
$PUCSORGRIGHT
 10
0.0
 20
0.0
 30
0.0
  9
$PUCSORGFRONT
 10
0.0
 20
0.0
 30
0.0
  9
$PUCSORGBACK
 10
0.0
 20
0.0
 30
0.0
  9
$USERI1
 70
     0
  9
$USERI2
 70
     0
  9
$USERI3
 70
     0
  9
$USERI4
 70
     0
  9
$USERI5
 70
     0
  9
$USERR1
 40
0.0
  9
$USERR2
 40
0.0
  9
$USERR3
 40
0.0
  9
$USERR4
 40
0.0
  9
$USERR5
 40
0.0
  9
$WORLDVIEW
 70
     1
  9
$SHADEDGE
 70
     3
  9
$SHADEDIF
 70
    70
  9
$TILEMODE
 70
     1
  9
$MAXACTVP
 70
    64
  9
$PINSBASE
 10
0.0
 20
0.0
 30
0.0
  9
$PLIMCHECK
 70
     0
  9
$PEXTMIN
 10
1.0000000000E+20
 20
1.0000000000E+20
 30
1.0000000000E+20
  9
$PEXTMAX
 10
-1.0000000000E+20
 20
-1.0000000000E+20
 30
-1.0000000000E+20
  9
$PLIMMIN
 10
0.0
 20
0.0
  9
$PLIMMAX
 10
420.0
 20
297.0
  9
$UNITMODE
 70
     0
  9
$VISRETAIN
 70
     1
  9
$PLINEGEN
 70
     0
  9
$PSLTSCALE
 70
     1
  9
$TREEDEPTH
 70
  3020
  9
$CMLSTYLE
  2
Standard
  9
$CMLJUST
 70
     0
  9
$CMLSCALE
 40
20.0
  9
$PROXYGRAPHICS
 70
     1
  9
$MEASUREMENT
 70
     1
  9
$CELWEIGHT
370
    -1
  9
$ENDCAPS
280
     0
  9
$JOINSTYLE
280
     0
  9
$LWDISPLAY
290
     1
  9
$INSUNITS
 70
     4
  9
$HYPERLINKBASE
  1

  9
$STYLESHEET
  1

  9
$XEDIT
290
     1
  9
$CEPSNTYPE
380
     0
  9
$PSTYLEMODE
290
     1
  9
$FINGERPRINTGUID
  2
{D958280A-3ECE-4B20-BACE-FE95346BA8D5}
  9
$VERSIONGUID
  2
{FAEB1C32-E019-11D5-929B-00C0DF256EC4}
  9
$EXTNAMES
290
     1
  9
$PSVPSCALE
 40
0.0
  9
$OLESTARTUP
290
     0
  0
ENDSEC
  0
SECTION
  2
CLASSES
  0
CLASS
  1
ACDBDICTIONARYWDFLT
  2
AcDbDictionaryWithDefault
  3
ObjectDBX Classes
 90
        0
280
     0
281
     0
  0
CLASS
  1
ACDBPLACEHOLDER
  2
AcDbPlaceHolder
  3
ObjectDBX Classes
 90
        0
280
     0
281
     0
  0
CLASS
  1
LAYOUT
  2
AcDbLayout
  3
ObjectDBX Classes
 90
        0
280
     0
281
     0
  0
ENDSEC
  0
SECTION
  2
TABLES
  0
TABLE
  2
VPORT
  5
8
330
0
100
AcDbSymbolTable
 70
     1
  0
VPORT
  5
29
330
8
100
AcDbSymbolTableRecord
100
AcDbViewportTableRecord
  2
*Active
 70
     0
 10
0.0
 20
0.0
 11
1.0
 21
1.0
 12
105.0
 22
148.5
 13
0.0
 23
0.0
 14
10.0
 24
10.0
 15
10.0
 25
10.0
 16
0.0
 26
0.0
 36
1.0
 17
0.0
 27
0.0
 37
0.0
 40
297.0
 41
1.9729729729
 42
50.0
 43
0.0
 44
0.0
 50
0.0
 51
0.0
 71
     0
 72
  2000
 73
     1
 74
     3
 75
     0
 76
     0
 77
     0
 78
     0
281
     0
 65
     1
110
0.0
120
0.0
130
0.0
111
1.0
121
0.0
131
0.0
112
0.0
122
1.0
132
0.0
 79
     0
146
0.0
  0
ENDTAB
  0
TABLE
  2
LTYPE
  5
5
330
0
100
AcDbSymbolTable
 70
     6
  0
LTYPE
  5
14
330
5
100
AcDbSymbolTableRecord
100
AcDbLinetypeTableRecord
  2
ByBlock
 70
     0
  3

 72
    65
 73
     0
 40
0.0
  0
LTYPE
  5
15
330
5
100
AcDbSymbolTableRecord
100
AcDbLinetypeTableRecord
  2
ByLayer
 70
     0
  3

 72
    65
 73
     0
 40
0.0
  0
LTYPE
  5
16
330
5
100
AcDbSymbolTableRecord
100
AcDbLinetypeTableRecord
  2
Continuous
 70
     0
  3
Solid line
 72
    65
 73
     0
 40
0.0
  0
LTYPE
  5
2A
330
5
100
AcDbSymbolTableRecord
100
AcDbLinetypeTableRecord
  2
HIDDEN
 70
     0
  3
Hidden __ __ __ __ __ __ __ __ __ __ __ __ __ __
 72
    65
 73
     2
 40
1.905
 49
1.27
 74
     0
 49
-0.635
 74
     0
  0
LTYPE
  5
2B
330
5
100
AcDbSymbolTableRecord
100
AcDbLinetypeTableRecord
  2
PHANTOM
 70
     0
  3
Phantom ______  __  __  ______  __  __  ______
 72
    65
 73
     6
 40
12.7
 49
6.35
 74
     0
 49
-1.27
 74
     0
 49
1.27
 74
     0
 49
-1.27
 74
     0
 49
1.27
 74
     0
 49
-1.27
 74
     0
  0
LTYPE
  5
2C
330
5
100
AcDbSymbolTableRecord
100
AcDbLinetypeTableRecord
  2
CENTER
 70
     0
  3
Center ____ _ ____ _ ____ _ ____ _ ____ _ ____
 72
    65
 73
     4
 40
10.16
 49
6.35
 74
     0
 49
-1.27
 74
     0
 49
1.27
 74
     0
 49
-1.27
 74
     0
  0
LTYPE
  5
2D
330
5
100
AcDbSymbolTableRecord
100
AcDbLinetypeTableRecord
  2
CENTERX2
 70
     0
  3
Center (2x) ________  __  ________  __  _____
 72
    65
 73
     4
 40
20.32
 49
12.7
 74
     0
 49
-2.54
 74
     0
 49
2.54
 74
     0
 49
-2.54
 74
     0
  0
LTYPE
  5
2E
330
5
100
AcDbSymbolTableRecord
100
AcDbLinetypeTableRecord
  2
DOT2
 70
     0
  3
Dot (.5x) ........................................
 72
    65
 73
     2
 40
0.635
 49
0.0
 74
     0
 49
-0.635
 74
     0
  0
ENDTAB
  0
TABLE
  2
LAYER
  5
2
330
0
100
AcDbSymbolTable
 70
     2
  0
LAYER
  5
10
330
2
100
AcDbSymbolTableRecord
100
AcDbLayerTableRecord
  2
0
 70
     0
 62
     7
  6
Continuous
370
    -3
390
F
  0
LAYER
  5
2F
330
2
100
AcDbSymbolTableRecord
100
AcDbLayerTableRecord
  2
SLD-0
 70
     0
 62
   179
  6
Continuous
370
     0
390
F
  0
ENDTAB
  0
TABLE
  2
STYLE
  5
3
330
0
100
AcDbSymbolTable
 70
     5
  0
STYLE
  5
11
330
3
100
AcDbSymbolTableRecord
100
AcDbTextStyleTableRecord
  2
Standard
 70
     0
 40
0.0
 41
1.0
 50
0.0
 71
     0
 42
2.5
  3
txt
  4
bigfont
  0
STYLE
  5
33
330
3
100
AcDbSymbolTableRecord
100
AcDbTextStyleTableRecord
  2
SLDTEXTSTYLE0
 70
     0
 40
0.0
 41
0.7
 50
0.0
 71
     0
 42
0.2
  3
TXT
  4
bigfont
  0
STYLE
  5
109
330
3
100
AcDbSymbolTableRecord
100
AcDbTextStyleTableRecord
  2
SLDTEXTSTYLE1
 70
     0
 40
0.0
 41
0.9277350526
 50
0.0
 71
     0
 42
0.2
  3
TXT
  4
bigfont
  0
STYLE
  5
10B
330
3
100
AcDbSymbolTableRecord
100
AcDbTextStyleTableRecord
  2
SLDTEXTSTYLE2
 70
     0
 40
0.0
 41
0.6255251653
 50
0.0
 71
     0
 42
0.2
  3
TXT
  4
bigfont
  0
STYLE
  5
10D
330
3
100
AcDbSymbolTableRecord
100
AcDbTextStyleTableRecord
  2
SLDTEXTSTYLE3
 70
     0
 40
0.0
 41
0.6244080758
 50
0.0
 71
     0
 42
0.2
  3
TXT
  4
bigfont
  0
ENDTAB
  0
TABLE
  2
VIEW
  5
6
330
0
100
AcDbSymbolTable
 70
     0
  0
ENDTAB
  0
TABLE
  2
UCS
  5
7
330
0
100
AcDbSymbolTable
 70
     0
  0
ENDTAB
  0
TABLE
  2
APPID
  5
9
330
0
100
AcDbSymbolTable
 70
     1
  0
APPID
  5
12
330
9
100
AcDbSymbolTableRecord
100
AcDbRegAppTableRecord
  2
ACAD
 70
     0
  0
ENDTAB
  0
TABLE
  2
DIMSTYLE
  5
A
330
0
100
AcDbSymbolTable
 70
     1
100
AcDbDimStyleTable
  0
DIMSTYLE
105
27
330
A
100
AcDbSymbolTableRecord
100
AcDbDimStyleTableRecord
  2
ISO-25
 70
     0
 41
2.5
 42
0.625
 43
3.75
 44
1.25
 73
     0
 74
     0
 77
     1
 78
     8
140
2.5
141
2.5
143
0.0393700787
147
0.625
171
     3
172
     1
271
     2
272
     2
274
     3
278
    44
283
     0
284
     8
340
11
  0
ENDTAB
  0
TABLE
  2
BLOCK_RECORD
  5
1
330
0
100
AcDbSymbolTable
 70
     2
  0
BLOCK_RECORD
  5
1F
330
1
100
AcDbSymbolTableRecord
100
AcDbBlockTableRecord
  2
*Model_Space
340
22
  0
BLOCK_RECORD
  5
1B
330
1
100
AcDbSymbolTableRecord
100
AcDbBlockTableRecord
  2
*Paper_Space
340
1E
  0
BLOCK_RECORD
  5
23
330
1
100
AcDbSymbolTableRecord
100
AcDbBlockTableRecord
  2
*Paper_Space0
340
26
  0
BLOCK_RECORD
  5
30
330
1
100
AcDbSymbolTableRecord
100
AcDbBlockTableRecord
  2
注記
340
0
  0
ENDTAB
  0
ENDSEC
  0
SECTION
  2
BLOCKS
  0
BLOCK
  5
20
330
1F
100
AcDbEntity
  8
0
100
AcDbBlockBegin
  2
*Model_Space
 70
     0
 71
     0
 10
0.0
 20
0.0
 30
0.0
  3
*Model_Space
  1

  0
ENDBLK
  5
21
330
1F
100
AcDbEntity
  8
0
100
AcDbBlockEnd
  0
BLOCK
  5
1C
330
1B
100
AcDbEntity
 67
     1
  8
0
100
AcDbBlockBegin
  2
*Paper_Space
 70
     0
 71
     0
 10
0.0
 20
0.0
 30
0.0
  3
*Paper_Space
  1

  0
ENDBLK
  5
1D
330
1B
100
AcDbEntity
 67
     1
  8
0
100
AcDbBlockEnd
  0
BLOCK
  5
24
330
23
100
AcDbEntity
  8
0
100
AcDbBlockBegin
  2
*Paper_Space0
 70
     0
 71
     0
 10
0.0
 20
0.0
 30
0.0
  3
*Paper_Space0
  1

  0
ENDBLK
  5
25
330
23
100
AcDbEntity
  8
0
100
AcDbBlockEnd
  0
BLOCK
  5
31
330
30
100
AcDbEntity
  8
0
100
AcDbBlockBegin
  2
注記
 70
     0
 71
     0
 10
0.0
 20
0.0
 30
0.0
  3
注記
  1

  0
MTEXT
  5
34
330
30
100
AcDbEntity
  8
0
  6
Continuous
 62
     7
370
     0
100
AcDbMText
 10
0.2636785918
 20
9.0739778448
 30
0.0
 40
3.5
 41
0.0
 71
     1
 72
     1
  1
１．特記ナキ角部ハ、バリ　カエリノ無キコト。
  7
SLDTEXTSTYLE0
 73
     1
 44
1.0
  0
MTEXT
  5
35
330
30
100
AcDbEntity
  8
0
  6
Continuous
 62
     7
370
     0
100
AcDbMText
 10
0.2636785918
 20
3.5759549983
 30
0.0
 40
3.5
 41
0.0
 71
     1
 72
     1
  1
２．特記ナキ隅部ハ、Ｒ０．４ＭＡＸトスル。
  7
SLDTEXTSTYLE0
 73
     1
 44
1.0
  0
ENDBLK
  5
32
330
30
100
AcDbEntity
  8
0
100
AcDbBlockEnd
  0
ENDSEC
  0
SECTION
  2
ENTITIES
  0
LINE
  5
36
330
1F
100
AcDbEntity
  8
SLD-0
  6
CENTER
 62
   179
100
AcDbLine
 10
19.61447
 20
209.93384
 30
0.0
 11
189.9157333
 21
209.93384
 31
0.0
  0
LINE
  5
37
330
1F
100
AcDbEntity
  8
SLD-0
  6
CENTER
 62
   179
100
AcDbLine
 10
100.915733
 20
228.93384
 30
0.0
 11
100.915733
 21
190.93384
 31
0.0
  0
LINE
  5
38
330
1F
100
AcDbEntity
  8
SLD-0
  6
Continuous
 62
   179
100
AcDbLine
 10
118.9157353506
 20
211.2838321405
 30
0.0
 11
184.9157356506
 21
211.2838321405
 31
0.0
  0
LINE
  5
39
330
1F
100
AcDbEntity
  8
SLD-0
  6
Continuous
 62
   179
100
AcDbLine
 10
118.912331
 20
208.58383
 30
0.0
 11
184.9157333
 21
208.58383
 31
0.0
  0
LINE
  5
3A
330
1F
100
AcDbEntity
  8
SLD-0
  6
Continuous
 62
   179
100
AcDbLine
 10
184.9157333
 20
208.58383
 30
0.0
 11
184.9157333
 21
205.39764
 31
0.0
  0
LINE
  5
3B
330
1F
100
AcDbEntity
  8
SLD-0
  6
Continuous
 62
   179
100
AcDbLine
 10
117.9157353506
 20
209.9338421405
 30
0.0
 11
117.9157353506
 21
210.2838321405
 31
0.0
  0
LINE
  5
3C
330
1F
100
AcDbEntity
  8
SLD-0
  6
Continuous
 62
   179
100
AcDbLine
 10
80.91573
 20
210.18384
 30
0.0
 11
81.08613
 21
210.18384
 31
0.0
  0
LINE
  5
3D
330
1F
100
AcDbEntity
  8
SLD-0
  6
Continuous
 62
   179
100
AcDbLine
 10
80.91573
 20
209.68384
 30
0.0
 11
81.9965
 21
209.68384
 31
0.0
  0
LINE
  5
3E
330
1F
100
AcDbEntity
  8
SLD-0
  6
CENTER
 62
   179
100
AcDbLine
 10
126.915733
 20
214.93384
 30
0.0
 11
126.915733
 21
204.93384
 31
0.0
  0
LINE
  5
3F
330
1F
100
AcDbEntity
  8
SLD-0
  6
Continuous
 62
   179
100
AcDbLine
 10
112.763925
 20
193.93385
 30
0.0
 11
119.595336
 21
208.58385
 31
0.0
  0
LINE
  5
40
330
1F
100
AcDbEntity
  8
SLD-0
  6
Continuous
 62
   179
100
AcDbLine
 10
81.99245
 20
210.76121
 30
0.0
 11
89.06756
 21
225.93385
 31
0.0
  0
LINE
  5
41
330
1F
100
AcDbEntity
  8
SLD-0
  6
Continuous
 62
   179
100
AcDbLine
 10
33.27472
 20
193.93384
 30
0.0
 11
120.915733
 21
193.93384
 31
0.0
  0
LINE
  5
42
330
1F
100
AcDbEntity
  8
SLD-0
  6
Continuous
 62
   179
100
AcDbLine
 10
33.27472
 20
225.93384
 30
0.0
 11
120.915733
 21
225.93384
 31
0.0
  0
LINE
  5
43
330
1F
100
AcDbEntity
  8
SLD-0
  6
Continuous
 62
   179
100
AcDbLine
 10
120.915733
 20
225.93384
 30
0.0
 11
179.475777
 21
220.44384
 31
0.0
  0
LINE
  5
44
330
1F
100
AcDbEntity
  8
SLD-0
  6
Continuous
 62
   179
100
AcDbLine
 10
120.9157309902
 20
193.933827277
 30
0.0
 11
179.4757819902
 21
199.423837277
 31
0.0
  0
LINE
  5
45
330
1F
100
AcDbEntity
  8
SLD-0
  6
Continuous
 62
   179
100
AcDbLine
 10
80.91573
 20
225.93384
 30
0.0
 11
80.91573
 21
193.93384
 31
0.0
  0
LINE
  5
46
330
1F
100
AcDbEntity
  8
SLD-0
  6
Continuous
 62
   179
100
AcDbLine
 10
24.61447
 20
219.93384
 30
0.0
 11
24.61447
 21
199.93384
 31
0.0
  0
LINE
  5
47
330
1F
100
AcDbEntity
  8
SLD-0
  6
Continuous
 62
   179
100
AcDbLine
 10
24.61447
 20
219.93387
 30
0.0
 11
33.27472
 21
225.93386
 31
0.0
  0
LINE
  5
48
330
1F
100
AcDbEntity
  8
SLD-0
  6
Continuous
 62
   179
100
AcDbLine
 10
24.61447
 20
199.93382
 30
0.0
 11
33.27471
 21
193.93382
 31
0.0
  0
LINE
  5
49
330
1F
100
AcDbEntity
  8
SLD-0
  6
Continuous
 62
   179
100
AcDbLine
 10
70.30762
 20
209.93385
 30
0.0
 11
69.11109
 21
206.51621
 31
0.0
  0
LINE
  5
4A
330
1F
100
AcDbEntity
  8
SLD-0
  6
Continuous
 62
   179
100
AcDbLine
 10
70.30763
 20
209.93382
 30
0.0
 11
69.11169
 21
213.34978
 31
0.0
  0
LINE
  5
4B
330
1F
100
AcDbEntity
  8
SLD-0
  6
Continuous
 62
   179
100
AcDbLine
 10
69.11161
 20
206.51793
 30
0.0
 11
25.81035
 21
206.51793
 31
0.0
  0
LINE
  5
4C
330
1F
100
AcDbEntity
  8
SLD-0
  6
Continuous
 62
   179
100
AcDbLine
 10
69.11167
 20
213.34975
 30
0.0
 11
25.81041
 21
213.34975
 31
0.0
  0
LINE
  5
4D
330
1F
100
AcDbEntity
  8
SLD-0
  6
Continuous
 62
   179
100
AcDbLine
 10
34.03445
 20
193.93384
 30
0.0
 11
43.88594
 21
193.93384
 31
0.0
  0
LINE
  5
4E
330
1F
100
AcDbEntity
  8
SLD-0
  6
Continuous
 62
   179
100
AcDbLine
 10
76.28373
 20
225.42575
 30
0.0
 11
76.28373
 21
194.44193
 31
0.0
  0
LINE
  5
4F
330
1F
100
AcDbEntity
  8
SLD-0
  6
Continuous
 62
   179
100
AcDbLine
 10
24.61446
 20
199.93384
 30
0.0
 11
27.18239
 21
199.93384
 31
0.0
  0
LINE
  5
50
330
1F
100
AcDbEntity
  8
SLD-0
  6
Continuous
 62
   179
100
AcDbLine
 10
24.61444
 20
209.93384
 30
0.0
 11
25.81036
 21
206.51794
 31
0.0
  0
LINE
  5
51
330
1F
100
AcDbEntity
  8
SLD-0
  6
Continuous
 62
   179
100
AcDbLine
 10
24.61447
 20
209.93385
 30
0.0
 11
25.81039
 21
213.34975
 31
0.0
  0
LINE
  5
52
330
1F
100
AcDbEntity
  8
SLD-0
  6
Continuous
 62
   179
100
AcDbLine
 10
39.0482
 20
193.93385
 30
0.0
 11
27.50122
 21
199.93384
 31
0.0
  0
LINE
  5
53
330
1F
100
AcDbEntity
  8
SLD-0
  6
Continuous
 62
   179
100
AcDbLine
 10
27.50121
 20
219.93384
 30
0.0
 11
39.04821
 21
225.93384
 31
0.0
  0
LINE
  5
54
330
1F
100
AcDbEntity
  8
SLD-0
  6
Continuous
 62
   179
100
AcDbLine
 10
24.61446
 20
219.93384
 30
0.0
 11
27.18239
 21
219.93384
 31
0.0
  0
LINE
  5
55
330
1F
100
AcDbEntity
  8
SLD-0
  6
Continuous
 62
   179
100
AcDbLine
 10
31.35022
 20
197.93384
 30
0.0
 11
66.80878
 21
197.93384
 31
0.0
  0
LINE
  5
56
330
1F
100
AcDbEntity
  8
SLD-0
  6
Continuous
 62
   179
100
AcDbLine
 10
71.43769
 20
194.43384
 30
0.0
 11
76.0458
 21
194.43384
 31
0.0
  0
LINE
  5
57
330
1F
100
AcDbEntity
  8
SLD-0
  6
Continuous
 62
   179
100
AcDbLine
 10
66.80824
 20
197.93276
 30
0.0
 11
64.70597
 21
193.93383
 31
0.0
  0
LINE
  5
58
330
1F
100
AcDbEntity
  8
SLD-0
  6
Continuous
 62
   179
100
AcDbLine
 10
31.35022
 20
221.93384
 30
0.0
 11
66.80878
 21
221.93384
 31
0.0
  0
LINE
  5
59
330
1F
100
AcDbEntity
  8
SLD-0
  6
Continuous
 62
   179
100
AcDbLine
 10
66.80823
 20
221.93489
 30
0.0
 11
64.70596
 21
225.93383
 31
0.0
  0
LINE
  5
5A
330
1F
100
AcDbEntity
  8
SLD-0
  6
Continuous
 62
   179
100
AcDbLine
 10
71.43769
 20
225.43384
 30
0.0
 11
76.0458
 21
225.43384
 31
0.0
  0
LINE
  5
5B
330
1F
100
AcDbEntity
  8
SLD-0
  6
CENTER
 62
   179
100
AcDbLine
 10
100.915733
 20
131.93384
 30
0.0
 11
100.915733
 21
104.933838
 31
0.0
  0
LINE
  5
5C
330
1F
100
AcDbEntity
  8
SLD-0
  6
Continuous
 62
   179
100
AcDbLine
 10
67.91573
 20
109.933838
 30
0.0
 11
120.915733
 21
109.933838
 31
0.0
  0
LINE
  5
5D
330
1F
100
AcDbEntity
  8
SLD-0
  6
Continuous
 62
   179
100
AcDbLine
 10
80.91573
 20
126.93384
 30
0.0
 11
120.915733
 21
126.93384
 31
0.0
  0
LINE
  5
5E
330
1F
100
AcDbEntity
  8
SLD-0
  6
Continuous
 62
   179
100
AcDbLine
 10
89.06754
 20
118.43384
 30
0.0
 11
112.763939
 21
118.43384
 31
0.0
  0
LINE
  5
5F
330
1F
100
AcDbEntity
  8
SLD-0
  6
Continuous
 62
   179
100
AcDbLine
 10
120.9157511557
 20
126.93384
 30
0.0
 11
177.4166501557
 21
126.05101
 31
0.0
  0
LINE
  5
60
330
1F
100
AcDbEntity
  8
SLD-0
  6
Continuous
 62
   179
100
AcDbLine
 10
112.763939
 20
118.43384
 30
0.0
 11
112.763939
 21
126.93384
 31
0.0
  0
LINE
  5
61
330
1F
100
AcDbEntity
  8
SLD-0
  6
Continuous
 62
   179
100
AcDbLine
 10
106.660301
 20
118.43384
 30
0.0
 11
106.660301
 21
126.93384
 31
0.0
  0
LINE
  5
62
330
1F
100
AcDbEntity
  8
SLD-0
  6
Continuous
 62
   179
100
AcDbLine
 10
95.171165
 20
109.933838
 30
0.0
 11
95.171165
 21
118.43384
 31
0.0
  0
LINE
  5
63
330
1F
100
AcDbEntity
  8
SLD-0
  6
Continuous
 62
   179
100
AcDbLine
 10
89.06754
 20
109.933838
 30
0.0
 11
89.06754
 21
118.43384
 31
0.0
  0
LINE
  5
64
330
1F
100
AcDbEntity
  8
SLD-0
  6
Continuous
 62
   179
100
AcDbLine
 10
24.61447
 20
134.93383
 30
0.0
 11
67.91573
 21
109.933838
 31
0.0
  0
LINE
  5
65
330
1F
100
AcDbEntity
  8
SLD-0
  6
Continuous
 62
   179
100
AcDbLine
 10
29.9542
 20
139.93385
 30
0.0
 11
54.26909
 21
125.89564
 31
0.0
  0
LINE
  5
66
330
1F
100
AcDbEntity
  8
SLD-0
  6
Continuous
 62
   179
100
AcDbLine
 10
27.50122
 20
139.93383
 30
0.0
 11
24.61447
 21
134.93383
 31
0.0
  0
LINE
  5
67
330
1F
100
AcDbEntity
  8
SLD-0
  6
Continuous
 62
   179
100
AcDbLine
 10
36.77473
 20
135.99601
 30
0.0
 11
34.03446
 21
131.24973
 31
0.0
  0
LINE
  5
68
330
1F
100
AcDbEntity
  8
SLD-0
  6
Continuous
 62
   179
100
AcDbLine
 10
70.9546598231
 20
109.9338426936
 30
0.0
 11
34.03446
 21
131.24973
 31
0.0
  0
LINE
  5
69
330
1F
100
AcDbEntity
  8
SLD-0
  6
Continuous
 62
   179
100
AcDbLine
 10
27.50122
 20
139.93383
 30
0.0
 11
29.95422
 21
139.93384
 31
0.0
  0
LINE
  5
6A
330
1F
100
AcDbEntity
  8
SLD-0
  6
Continuous
 62
   179
100
AcDbLine
 10
177.416648
 20
110.81666
 30
0.0
 11
120.915733
 21
109.933838
 31
0.0
  0
LINE
  5
6B
330
1F
100
AcDbEntity
  8
SLD-0
  6
Continuous
 62
   179
100
AcDbLine
 10
184.9157356506
 20
214.4700321405
 30
0.0
 11
184.9157356506
 21
211.2838321405
 31
0.0
  0
LINE
  5
6C
330
1F
100
AcDbEntity
  8
SLD-0
  6
Continuous
 62
   179
100
AcDbLine
 10
16.45
 20
11.125
 30
0.0
 11
193.25
 21
11.125
 31
0.0
  0
LINE
  5
6D
330
1F
100
AcDbEntity
  8
SLD-0
  6
Continuous
 62
   179
100
AcDbLine
 10
193.25
 20
285.625
 30
0.0
 11
193.25
 21
11.125
 31
0.0
  0
LINE
  5
6E
330
1F
100
AcDbEntity
  8
SLD-0
  6
Continuous
 62
   179
100
AcDbLine
 10
16.45
 20
285.625
 30
0.0
 11
16.45
 21
11.125
 31
0.0
  0
LINE
  5
6F
330
1F
100
AcDbEntity
  8
SLD-0
  6
Continuous
 62
   179
100
AcDbLine
 10
16.45
 20
285.625
 30
0.0
 11
193.25
 21
285.625
 31
0.0
  0
LINE
  5
70
330
1F
100
AcDbEntity
  8
SLD-0
  6
Continuous
 62
   179
100
AcDbLine
 10
131.650002
 20
49.625
 30
0.0
 11
131.650002
 21
11.125
 31
0.0
  0
LINE
  5
71
330
1F
100
AcDbEntity
  8
SLD-0
  6
Continuous
 62
   179
100
AcDbLine
 10
131.650002
 20
23.625
 30
0.0
 11
193.25
 21
23.625
 31
0.0
  0
LINE
  5
72
330
1F
100
AcDbEntity
  8
SLD-0
  6
Continuous
 62
   179
100
AcDbLine
 10
131.650002
 20
36.125
 30
0.0
 11
193.25
 21
36.125
 31
0.0
  0
LINE
  5
73
330
1F
100
AcDbEntity
  8
SLD-0
  6
Continuous
 62
   179
100
AcDbLine
 10
131.650002
 20
49.625
 30
0.0
 11
193.25
 21
49.625
 31
0.0
  0
LINE
  5
74
330
1F
100
AcDbEntity
  8
SLD-0
  6
Continuous
 62
   179
100
AcDbLine
 10
16.64999
 20
11.325
 30
0.0
 11
193.25
 21
11.325
 31
0.0
  0
LINE
  5
75
330
1F
100
AcDbEntity
  8
SLD-0
  6
Continuous
 62
   179
100
AcDbLine
 10
16.64999
 20
285.625
 30
0.0
 11
16.64999
 21
11.325
 31
0.0
  0
LINE
  5
76
330
1F
100
AcDbEntity
  8
SLD-0
  6
Continuous
 62
   179
100
AcDbLine
 10
193.45
 20
285.82501
 30
0.0
 11
193.45
 21
11.125
 31
0.0
  0
LINE
  5
77
330
1F
100
AcDbEntity
  8
SLD-0
  6
Continuous
 62
   179
100
AcDbLine
 10
16.45
 20
285.82501
 30
0.0
 11
193.45
 21
285.82501
 31
0.0
  0
LINE
  5
78
330
1F
100
AcDbEntity
  8
SLD-0
  6
CENTER
 62
   179
100
AcDbLine
 10
53.06011
 20
118.43385
 30
0.0
 11
188.3072434
 21
118.43384
 31
0.0
  0
LINE
  5
79
330
1F
100
AcDbEntity
  8
SLD-0
  6
Continuous
 62
   179
100
AcDbLine
 10
24.90958
 20
135.44505
 30
0.0
 11
25.47624
 21
135.17043
 31
0.0
  0
LINE
  5
7A
330
1F
100
AcDbEntity
  8
SLD-0
  6
Continuous
 62
   179
100
AcDbLine
 10
25.47624
 20
135.17043
 30
0.0
 11
26.04344
 21
134.89743
 31
0.0
  0
LINE
  5
7B
330
1F
100
AcDbEntity
  8
SLD-0
  6
Continuous
 62
   179
100
AcDbLine
 10
26.04344
 20
134.89743
 30
0.0
 11
26.61118
 21
134.62607
 31
0.0
  0
LINE
  5
7C
330
1F
100
AcDbEntity
  8
SLD-0
  6
Continuous
 62
   179
100
AcDbLine
 10
26.61118
 20
134.62607
 30
0.0
 11
27.17943
 21
134.35635
 31
0.0
  0
LINE
  5
7D
330
1F
100
AcDbEntity
  8
SLD-0
  6
Continuous
 62
   179
100
AcDbLine
 10
27.17943
 20
134.35635
 30
0.0
 11
27.74819
 21
134.08827
 31
0.0
  0
LINE
  5
7E
330
1F
100
AcDbEntity
  8
SLD-0
  6
Continuous
 62
   179
100
AcDbLine
 10
27.74819
 20
134.08827
 30
0.0
 11
28.31745
 21
133.82184
 31
0.0
  0
LINE
  5
7F
330
1F
100
AcDbEntity
  8
SLD-0
  6
Continuous
 62
   179
100
AcDbLine
 10
28.31745
 20
133.82184
 30
0.0
 11
28.88719
 21
133.55707
 31
0.0
  0
LINE
  5
80
330
1F
100
AcDbEntity
  8
SLD-0
  6
Continuous
 62
   179
100
AcDbLine
 10
28.88719
 20
133.55707
 30
0.0
 11
29.45741
 21
133.29397
 31
0.0
  0
LINE
  5
81
330
1F
100
AcDbEntity
  8
SLD-0
  6
Continuous
 62
   179
100
AcDbLine
 10
29.45741
 20
133.29397
 30
0.0
 11
30.0281
 21
133.03253
 31
0.0
  0
LINE
  5
82
330
1F
100
AcDbEntity
  8
SLD-0
  6
Continuous
 62
   179
100
AcDbLine
 10
30.0281
 20
133.03253
 30
0.0
 11
30.59923
 21
132.77276
 31
0.0
  0
LINE
  5
83
330
1F
100
AcDbEntity
  8
SLD-0
  6
Continuous
 62
   179
100
AcDbLine
 10
30.59923
 20
132.77276
 30
0.0
 11
31.1708
 21
132.51467
 31
0.0
  0
LINE
  5
84
330
1F
100
AcDbEntity
  8
SLD-0
  6
Continuous
 62
   179
100
AcDbLine
 10
31.1708
 20
132.51467
 30
0.0
 11
31.74281
 21
132.25826
 31
0.0
  0
LINE
  5
85
330
1F
100
AcDbEntity
  8
SLD-0
  6
Continuous
 62
   179
100
AcDbLine
 10
31.74281
 20
132.25826
 30
0.0
 11
32.31523
 21
132.00354
 31
0.0
  0
LINE
  5
86
330
1F
100
AcDbEntity
  8
SLD-0
  6
Continuous
 62
   179
100
AcDbLine
 10
32.31523
 20
132.00354
 30
0.0
 11
32.88805
 21
131.75051
 31
0.0
  0
LINE
  5
87
330
1F
100
AcDbEntity
  8
SLD-0
  6
Continuous
 62
   179
100
AcDbLine
 10
32.88805
 20
131.75051
 30
0.0
 11
33.46128
 21
131.49917
 31
0.0
  0
LINE
  5
88
330
1F
100
AcDbEntity
  8
SLD-0
  6
Continuous
 62
   179
100
AcDbLine
 10
33.46128
 20
131.49917
 30
0.0
 11
34.03488
 21
131.24954
 31
0.0
  0
CIRCLE
  5
89
330
1F
100
AcDbEntity
  8
SLD-0
  6
Continuous
 62
   179
100
AcDbCircle
 10
100.9157353506
 20
209.9338421405
 30
0.0
 40
2.049999999999995
  0
CIRCLE
  5
8A
330
1F
100
AcDbEntity
  8
SLD-0
  6
Continuous
 62
   179
100
AcDbCircle
 10
100.9157353506
 20
209.9338421405
 30
0.0
 40
8.500000000000002
  0
ARC
  5
8B
330
1F
100
AcDbEntity
  8
SLD-0
  6
Continuous
 62
   179
100
AcDbCircle
 10
100.9157353506
 20
209.9338421405
 30
0.0
 40
17.0
100
AcDbArc
 50
289.74992
 51
0.0
  0
ARC
  5
8C
330
1F
100
AcDbEntity
  8
SLD-0
  6
Continuous
 62
   179
100
AcDbCircle
 10
100.9157353506
 20
209.9338421405
 30
0.0
 40
17.0
100
AcDbArc
 50
109.74992
 51
174.71527
  0
ARC
  5
8D
330
1F
100
AcDbEntity
  8
SLD-0
  6
Continuous
 62
   179
100
AcDbCircle
 10
118.9157353506
 20
210.2838321405
 30
0.0
 40
1.0
100
AcDbArc
 50
90.0
 51
180.0
  0
ARC
  5
8E
330
1F
100
AcDbEntity
  8
SLD-0
  6
Continuous
 62
   179
100
AcDbCircle
 10
118.912331
 20
209.58383
 30
0.0
 40
1.0
100
AcDbArc
 50
178.88585
 51
270.0
  0
ARC
  5
8F
330
1F
100
AcDbEntity
  8
SLD-0
  6
Continuous
 62
   179
100
AcDbCircle
 10
81.54598
 20
212.18384
 30
0.0
 40
2.5
100
AcDbArc
 50
270.0
 51
353.37419
  0
ARC
  5
90
330
1F
100
AcDbEntity
  8
SLD-0
  6
Continuous
 62
   179
100
AcDbCircle
 10
81.08613
 20
211.18384
 30
0.0
 40
1.0
100
AcDbArc
 50
270.0
 51
335.0
  0
ARC
  5
91
330
1F
100
AcDbEntity
  8
SLD-0
  6
Continuous
 62
   179
100
AcDbCircle
 10
66.76908
 20
147.54626
 30
0.0
 40
25.0
100
AcDbArc
 50
240.0
 51
304.46244
  0
ARC
  5
92
330
1F
100
AcDbEntity
  8
SLD-0
  6
Continuous
 62
   179
100
AcDbCircle
 10
177.2976300779
 20
118.4338350168
 30
0.0
 40
7.618104784195823
100
AcDbArc
 50
270.8951704202
 51
89.1048133646
  0
ARC
  5
93
330
1F
100
AcDbEntity
  8
SLD-0
  6
Continuous
 62
   179
100
AcDbCircle
 10
178.9157332007
 20
214.4700321405
 30
0.0
 40
6.000002449917275
100
AcDbArc
 50
0.0
 51
84.6441814936
  0
ARC
  5
94
330
1F
100
AcDbEntity
  8
SLD-0
  6
Continuous
 62
   179
100
AcDbCircle
 10
178.9157357349
 20
205.39764
 30
0.0
 40
5.999997565087057
100
AcDbArc
 50
275.355846435
 51
0.0
  0
ARC
  5
95
330
1F
100
AcDbEntity
  8
SLD-0
  6
Continuous
 62
   179
100
AcDbCircle
 10
82.9215345076
 20
207.1606137986
 30
0.0
 40
13.82483635374452
100
AcDbArc
 50
182.6623060586
 51
187.9179730305
  0
ARC
  5
96
330
1F
100
AcDbEntity
  8
SLD-0
  6
Continuous
 62
   179
100
AcDbCircle
 10
82.7759799807
 20
206.5360228998
 30
0.0
 40
13.60780060382652
100
AcDbArc
 50
185.396810019
 51
190.652476991
  0
ARC
  5
97
330
1F
100
AcDbEntity
  8
SLD-0
  6
Continuous
 62
   179
100
AcDbCircle
 10
82.5738260758
 20
205.9276595414
 30
0.0
 40
13.30848231844634
100
AcDbArc
 50
188.2386483289
 51
193.4943153008
  0
ARC
  5
98
330
1F
100
AcDbEntity
  8
SLD-0
  6
Continuous
 62
   179
100
AcDbCircle
 10
82.3168638947
 20
205.3401977483
 30
0.0
 40
12.93164181836014
100
AcDbArc
 50
191.2284054253
 51
196.4840723973
  0
ARC
  5
99
330
1F
100
AcDbEntity
  8
SLD-0
  6
Continuous
 62
   179
100
AcDbCircle
 10
82.0071721247
 20
204.7787191299
 30
0.0
 40
12.48349226544451
100
AcDbArc
 50
194.4158314839
 51
199.6714984558
  0
ARC
  5
9A
330
1F
100
AcDbEntity
  8
SLD-0
  6
Continuous
 62
   179
100
AcDbCircle
 10
81.647270978
 20
204.2480931774
 30
0.0
 40
11.97195756945238
100
AcDbArc
 50
197.859734089
 51
203.115401061
  0
ARC
  5
9B
330
1F
100
AcDbEntity
  8
SLD-0
  6
Continuous
 62
   179
100
AcDbCircle
 10
81.2402311335
 20
203.7524565002
 30
0.0
 40
11.40685968370943
100
AcDbArc
 50
201.6282101737
 51
206.8838771456
  0
ARC
  5
9C
330
1F
100
AcDbEntity
  8
SLD-0
  6
Continuous
 62
   179
100
AcDbCircle
 10
80.7896047953
 20
203.2964351149
 30
0.0
 40
10.80063674972574
100
AcDbArc
 50
205.8070832664
 51
211.0627502384
  0
ARC
  5
9D
330
1F
100
AcDbEntity
  8
SLD-0
  6
Continuous
 62
   179
100
AcDbCircle
 10
80.2991288712
 20
202.8835542752
 30
0.0
 40
10.16795459491237
100
AcDbArc
 50
210.4958619598
 51
215.7515289318
  0
ARC
  5
9E
330
1F
100
AcDbEntity
  8
SLD-0
  6
Continuous
 62
   179
100
AcDbCircle
 10
79.7728389129
 20
202.5171639383
 30
0.0
 40
9.52677360250893
100
AcDbArc
 50
215.8125667717
 51
221.0682337437
  0
ARC
  5
9F
330
1F
100
AcDbEntity
  8
SLD-0
  6
Continuous
 62
   179
100
AcDbCircle
 10
79.2151341166
 20
202.2007055868
 30
0.0
 40
8.899322559170047
100
AcDbArc
 50
221.8910761805
 51
227.1467431525
  0
ARC
  5
A0
330
1F
100
AcDbEntity
  8
SLD-0
  6
Continuous
 62
   179
100
AcDbCircle
 10
78.6309162629
 20
201.9365578223
 30
0.0
 40
8.312055868729749
100
AcDbArc
 50
228.8608698426
 51
234.1165368146
  0
ARC
  5
A1
330
1F
100
AcDbEntity
  8
SLD-0
  6
Continuous
 62
   179
100
AcDbCircle
 10
78.0248621328
 20
201.7271997121
 30
0.0
 40
7.795905475775185
100
AcDbArc
 50
236.8244929239
 51
242.0801598958
  0
ARC
  5
A2
330
1F
100
AcDbEntity
  8
SLD-0
  6
Continuous
 62
   179
100
AcDbCircle
 10
77.4022210919
 20
201.5739774425
 30
0.0
 40
7.384489171000844
100
AcDbArc
 50
245.794820402
 51
251.050487374
  0
ARC
  5
A3
330
1F
100
AcDbEntity
  8
SLD-0
  6
Continuous
 62
   179
100
AcDbCircle
 10
76.7682114465
 20
201.478589488
 30
0.0
 40
7.111160382049738
100
AcDbArc
 50
255.6372823088
 51
260.8929492807
  0
ARC
  5
A4
330
1F
100
AcDbEntity
  8
SLD-0
  6
Continuous
 62
   179
100
AcDbCircle
 10
76.127966503
 20
201.4416653823
 30
0.0
 40
7.00143521405603
100
AcDbArc
 50
266.0253393779
 51
271.2810063498
  0
ARC
  5
A5
330
1F
100
AcDbEntity
  8
SLD-0
  6
Continuous
 62
   179
100
AcDbCircle
 10
76.1290749439
 20
218.4259314562
 30
0.0
 40
7.001538433203923
100
AcDbArc
 50
88.7374167673
 51
93.9923079041
  0
ARC
  5
A6
330
1F
100
AcDbEntity
  8
SLD-0
  6
Continuous
 62
   179
100
AcDbCircle
 10
76.7691683615
 20
218.3889417675
 30
0.0
 40
7.111496819174021
100
AcDbArc
 50
99.1229922687
 51
104.3778834055
  0
ARC
  5
A7
330
1F
100
AcDbEntity
  8
SLD-0
  6
Continuous
 62
   179
100
AcDbCircle
 10
77.4031436179
 20
218.2935318792
 30
0.0
 40
7.384984612127411
100
AcDbArc
 50
108.9635537486
 51
114.2184448854
  0
ARC
  5
A8
330
1F
100
AcDbEntity
  8
SLD-0
  6
Continuous
 62
   179
100
AcDbCircle
 10
78.0256479466
 20
218.1403311801
 30
0.0
 40
7.796427535425403
100
AcDbArc
 50
117.9313296172
 51
123.1862207541
  0
ARC
  5
A9
330
1F
100
AcDbEntity
  8
SLD-0
  6
Continuous
 62
   179
100
AcDbCircle
 10
78.6315604521
 20
217.9308251024
 30
0.0
 40
8.312683049707283
100
AcDbArc
 50
125.891941631
 51
131.1468327678
  0
ARC
  5
AA
330
1F
100
AcDbEntity
  8
SLD-0
  6
Continuous
 62
   179
100
AcDbCircle
 10
79.2157341952
 20
217.6666813803
 30
0.0
 40
8.899949912547646
100
AcDbArc
 50
132.8601367361
 51
138.1150278729
  0
ARC
  5
AB
330
1F
100
AcDbEntity
  8
SLD-0
  6
Continuous
 62
   179
100
AcDbCircle
 10
79.7732730641
 20
217.350160878
 30
0.0
 40
9.527330222510486
100
AcDbArc
 50
138.9364762469
 51
144.1913673837
  0
ARC
  5
AC
330
1F
100
AcDbEntity
  8
SLD-0
  6
Continuous
 62
   179
100
AcDbCircle
 10
80.2993878175
 20
216.9839736323
 30
0.0
 40
10.16825106494615
100
AcDbArc
 50
144.2525058142
 51
149.507396951
  0
ARC
  5
AD
330
1F
100
AcDbEntity
  8
SLD-0
  6
Continuous
 62
   179
100
AcDbCircle
 10
80.7898908684
 20
216.5710059392
 30
0.0
 40
10.80099553024138
100
AcDbArc
 50
148.9400127545
 51
154.1949038913
  0
ARC
  5
AE
330
1F
100
AcDbEntity
  8
SLD-0
  6
Continuous
 62
   179
100
AcDbCircle
 10
81.2405125432
 20
216.114924095
 30
0.0
 40
11.40723453846189
100
AcDbArc
 50
153.1177564938
 51
158.3726476306
  0
ARC
  5
AF
330
1F
100
AcDbEntity
  8
SLD-0
  6
Continuous
 62
   179
100
AcDbCircle
 10
81.6473069094
 20
215.6194806547
 30
0.0
 40
11.97202623493633
100
AcDbArc
 50
156.8858518954
 51
162.1407430322
  0
ARC
  5
B0
330
1F
100
AcDbEntity
  8
SLD-0
  6
Continuous
 62
   179
100
AcDbCircle
 10
82.007156559
 20
215.0888652601
 30
0.0
 40
12.48350569894189
100
AcDbArc
 50
160.3289349177
 51
165.5838260545
  0
ARC
  5
B1
330
1F
100
AcDbEntity
  8
SLD-0
  6
Continuous
 62
   179
100
AcDbCircle
 10
82.3168759547
 20
214.5275256825
 30
0.0
 40
12.93164497337689
100
AcDbArc
 50
163.5162248257
 51
168.7711159625
  0
ARC
  5
B2
330
1F
100
AcDbEntity
  8
SLD-0
  6
Continuous
 62
   179
100
AcDbCircle
 10
82.5737312132
 20
213.9402217796
 30
0.0
 40
13.30834892731941
100
AcDbArc
 50
166.5057741091
 51
171.7606652459
  0
ARC
  5
B3
330
1F
100
AcDbEntity
  8
SLD-0
  6
Continuous
 62
   179
100
AcDbCircle
 10
82.77595989
 20
213.3318115386
 30
0.0
 40
13.60775619608108
100
AcDbArc
 50
169.3466928259
 51
174.6015839627
  0
ARC
  5
B4
330
1F
100
AcDbEntity
  8
SLD-0
  6
Continuous
 62
   179
100
AcDbCircle
 10
82.9215524538
 20
212.7073939902
 30
0.0
 40
13.82482255804605
100
AcDbArc
 50
172.0811729031
 51
177.3360640399
  0
ARC
  5
B5
330
1F
100
AcDbEntity
  8
SLD-0
  6
Continuous
 62
   179
100
AcDbCircle
 10
76.1290749439
 20
218.4259314562
 30
0.0
 40
7.001538433203923
100
AcDbArc
 50
88.7374167673
 51
93.9923079041
  0
ARC
  5
B6
330
1F
100
AcDbEntity
  8
SLD-0
  6
Continuous
 62
   179
100
AcDbCircle
 10
76.7691683615
 20
218.3889417675
 30
0.0
 40
7.111496819174021
100
AcDbArc
 50
99.1229922687
 51
104.3778834055
  0
ARC
  5
B7
330
1F
100
AcDbEntity
  8
SLD-0
  6
Continuous
 62
   179
100
AcDbCircle
 10
77.4031436179
 20
218.2935318792
 30
0.0
 40
7.384984612127411
100
AcDbArc
 50
108.9635537486
 51
114.2184448854
  0
ARC
  5
B8
330
1F
100
AcDbEntity
  8
SLD-0
  6
Continuous
 62
   179
100
AcDbCircle
 10
78.0256479466
 20
218.1403311801
 30
0.0
 40
7.796427535425403
100
AcDbArc
 50
117.9313296172
 51
123.1862207541
  0
ARC
  5
B9
330
1F
100
AcDbEntity
  8
SLD-0
  6
Continuous
 62
   179
100
AcDbCircle
 10
78.6315604521
 20
217.9308251024
 30
0.0
 40
8.312683049707283
100
AcDbArc
 50
125.891941631
 51
131.1468327678
  0
ARC
  5
BA
330
1F
100
AcDbEntity
  8
SLD-0
  6
Continuous
 62
   179
100
AcDbCircle
 10
79.2157341952
 20
217.6666813803
 30
0.0
 40
8.899949912547646
100
AcDbArc
 50
132.8601367361
 51
138.1150278729
  0
ARC
  5
BB
330
1F
100
AcDbEntity
  8
SLD-0
  6
Continuous
 62
   179
100
AcDbCircle
 10
79.7732730641
 20
217.350160878
 30
0.0
 40
9.527330222510486
100
AcDbArc
 50
138.9364762469
 51
144.1913673837
  0
ARC
  5
BC
330
1F
100
AcDbEntity
  8
SLD-0
  6
Continuous
 62
   179
100
AcDbCircle
 10
80.2993878175
 20
216.9839736323
 30
0.0
 40
10.16825106494615
100
AcDbArc
 50
144.2525058142
 51
149.507396951
  0
ARC
  5
BD
330
1F
100
AcDbEntity
  8
SLD-0
  6
Continuous
 62
   179
100
AcDbCircle
 10
80.7898908684
 20
216.5710059392
 30
0.0
 40
10.80099553024138
100
AcDbArc
 50
148.9400127545
 51
154.1949038913
  0
ARC
  5
BE
330
1F
100
AcDbEntity
  8
SLD-0
  6
Continuous
 62
   179
100
AcDbCircle
 10
81.2405125432
 20
216.114924095
 30
0.0
 40
11.40723453846189
100
AcDbArc
 50
153.1177564938
 51
158.3726476306
  0
ARC
  5
BF
330
1F
100
AcDbEntity
  8
SLD-0
  6
Continuous
 62
   179
100
AcDbCircle
 10
81.6473069094
 20
215.6194806547
 30
0.0
 40
11.97202623493633
100
AcDbArc
 50
156.8858518954
 51
162.1407430322
  0
ARC
  5
C0
330
1F
100
AcDbEntity
  8
SLD-0
  6
Continuous
 62
   179
100
AcDbCircle
 10
82.007156559
 20
215.0888652601
 30
0.0
 40
12.48350569894189
100
AcDbArc
 50
160.3289349177
 51
165.5838260545
  0
ARC
  5
C1
330
1F
100
AcDbEntity
  8
SLD-0
  6
Continuous
 62
   179
100
AcDbCircle
 10
82.3168759547
 20
214.5275256825
 30
0.0
 40
12.93164497337689
100
AcDbArc
 50
163.5162248257
 51
168.7711159625
  0
ARC
  5
C2
330
1F
100
AcDbEntity
  8
SLD-0
  6
Continuous
 62
   179
100
AcDbCircle
 10
82.5737312132
 20
213.9402217796
 30
0.0
 40
13.30834892731941
100
AcDbArc
 50
166.5057741091
 51
171.7606652459
  0
ARC
  5
C3
330
1F
100
AcDbEntity
  8
SLD-0
  6
Continuous
 62
   179
100
AcDbCircle
 10
82.77595989
 20
213.3318115386
 30
0.0
 40
13.60775619608108
100
AcDbArc
 50
169.3466928259
 51
174.6015839627
  0
ARC
  5
C4
330
1F
100
AcDbEntity
  8
SLD-0
  6
Continuous
 62
   179
100
AcDbCircle
 10
82.9215524538
 20
212.7073939902
 30
0.0
 40
13.82482255804605
100
AcDbArc
 50
172.0811729031
 51
177.3360640399
  0
ARC
  5
C5
330
1F
100
AcDbEntity
  8
SLD-0
  6
Continuous
 62
   179
100
AcDbCircle
 10
39.6614874292
 20
207.3646552411
 30
0.0
 40
13.87695130230983
100
AcDbArc
 50
183.4959777452
 51
185.3407750029
  0
ARC
  5
C6
330
1F
100
AcDbEntity
  8
SLD-0
  6
Continuous
 62
   179
100
AcDbCircle
 10
39.623401815
 20
207.1427765667
 30
0.0
 40
13.82008831462788
100
AcDbArc
 50
184.4395562073
 51
186.284353465
  0
ARC
  5
C7
330
1F
100
AcDbEntity
  8
SLD-0
  6
Continuous
 62
   179
100
AcDbCircle
 10
39.5784712921
 20
206.9217095711
 30
0.0
 40
13.75290700490084
100
AcDbArc
 50
185.3893572129
 51
187.2341544706
  0
ARC
  5
C8
330
1F
100
AcDbEntity
  8
SLD-0
  6
Continuous
 62
   179
100
AcDbCircle
 10
39.5260297534
 20
206.702845915
 30
0.0
 40
13.67494308347169
100
AcDbArc
 50
186.3520844915
 51
188.1968817492
  0
ARC
  5
C9
330
1F
100
AcDbEntity
  8
SLD-0
  6
Continuous
 62
   179
100
AcDbCircle
 10
39.4669538595
 20
206.4850878306
 30
0.0
 40
13.58700245288684
100
AcDbArc
 50
187.3234713272
 51
189.1682685849
  0
ARC
  5
CA
330
1F
100
AcDbEntity
  8
SLD-0
  6
Continuous
 62
   179
100
AcDbCircle
 10
39.4005625033
 20
206.2701275321
 30
0.0
 40
13.48871584049086
100
AcDbArc
 50
188.3117523929
 51
190.1565496506
  0
ARC
  5
CB
330
1F
100
AcDbEntity
  8
SLD-0
  6
Continuous
 62
   179
100
AcDbCircle
 10
39.3277173454
 20
206.0565466983
 30
0.0
 40
13.38080568759122
100
AcDbArc
 50
189.3113134837
 51
191.1561107414
  0
ARC
  5
CC
330
1F
100
AcDbEntity
  8
SLD-0
  6
Continuous
 62
   179
100
AcDbCircle
 10
39.2477172788
 20
205.8460275434
 30
0.0
 40
13.2629617468451
100
AcDbArc
 50
190.3306954232
 51
192.1754926809
  0
ARC
  5
CD
330
1F
100
AcDbEntity
  8
SLD-0
  6
Continuous
 62
   179
100
AcDbCircle
 10
39.1607978571
 20
205.6380834067
 30
0.0
 40
13.13544258042446
100
AcDbArc
 50
191.368794836
 51
193.2135920937
  0
ARC
  5
CE
330
1F
100
AcDbEntity
  8
SLD-0
  6
Continuous
 62
   179
100
AcDbCircle
 10
39.0677957406
 20
205.4328287348
 30
0.0
 40
12.99921168896741
100
AcDbArc
 50
192.4265316706
 51
194.2713289283
  0
ARC
  5
CF
330
1F
100
AcDbEntity
  8
SLD-0
  6
Continuous
 62
   179
100
AcDbCircle
 10
38.967684269
 20
205.2309990811
 30
0.0
 40
12.85357236530638
100
AcDbArc
 50
193.5094079767
 51
195.3542052344
  0
ARC
  5
D0
330
1F
100
AcDbEntity
  8
SLD-0
  6
Continuous
 62
   179
100
AcDbCircle
 10
38.8616006563
 20
205.032082785
 30
0.0
 40
12.69966046297242
100
AcDbArc
 50
194.6155139345
 51
196.4603111922
  0
ARC
  5
D1
330
1F
100
AcDbEntity
  8
SLD-0
  6
Continuous
 62
   179
100
AcDbCircle
 10
38.7485032419
 20
204.8371159537
 30
0.0
 40
12.53691148204773
100
AcDbArc
 50
195.7522368208
 51
197.5970340785
  0
ARC
  5
D2
330
1F
100
AcDbEntity
  8
SLD-0
  6
Continuous
 62
   179
100
AcDbCircle
 10
38.6298297935
 20
204.6455719266
 30
0.0
 40
12.36675368933762
100
AcDbArc
 50
196.9173333335
 51
198.7621305912
  0
ARC
  5
D3
330
1F
100
AcDbEntity
  8
SLD-0
  6
Continuous
 62
   179
100
AcDbCircle
 10
38.504834204
 20
204.4581512571
 30
0.0
 40
12.18889098456306
100
AcDbArc
 50
198.1169146124
 51
199.9617118701
  0
ARC
  5
D4
330
1F
100
AcDbEntity
  8
SLD-0
  6
Continuous
 62
   179
100
AcDbCircle
 10
38.3740125805
 20
204.2749333918
 30
0.0
 40
12.00405751610026
100
AcDbArc
 50
199.3529054
 51
201.1977026577
  0
ARC
  5
D5
330
1F
100
AcDbEntity
  8
SLD-0
  6
Continuous
 62
   179
100
AcDbCircle
 10
38.3737099753
 20
215.5928803567
 30
0.0
 40
12.00372741406317
100
AcDbArc
 50
158.8017054571
 51
160.6463577888
  0
ARC
  5
D6
330
1F
100
AcDbEntity
  8
SLD-0
  6
Continuous
 62
   179
100
AcDbCircle
 10
38.5048727485
 20
215.4097119135
 30
0.0
 40
12.18886632175631
100
AcDbArc
 50
160.03831189
 51
161.8829642217
  0
ARC
  5
D7
330
1F
100
AcDbEntity
  8
SLD-0
  6
Continuous
 62
   179
100
AcDbCircle
 10
38.6298929825
 20
215.2220254055
 30
0.0
 40
12.36683816042672
100
AcDbArc
 50
161.2366192438
 51
163.0812715754
  0
ARC
  5
D8
330
1F
100
AcDbEntity
  8
SLD-0
  6
Continuous
 62
   179
100
AcDbCircle
 10
38.7485900992
 20
215.0308369886
 30
0.0
 40
12.5369145682179
100
AcDbArc
 50
162.4031762825
 51
164.2478286141
  0
ARC
  5
D9
330
1F
100
AcDbEntity
  8
SLD-0
  6
Continuous
 62
   179
100
AcDbCircle
 10
38.8613996766
 20
214.8356099288
 30
0.0
 40
12.69946107162044
100
AcDbArc
 50
163.5382596582
 51
165.3829119899
  0
ARC
  5
DA
330
1F
100
AcDbEntity
  8
SLD-0
  6
Continuous
 62
   179
100
AcDbCircle
 10
38.967504981
 20
214.6370598043
 30
0.0
 40
12.85330144425359
100
AcDbArc
 50
164.6458278147
 51
166.4904801464
  0
ARC
  5
DB
330
1F
100
AcDbEntity
  8
SLD-0
  6
Continuous
 62
   179
100
AcDbCircle
 10
39.0676321681
 20
214.4346648811
 30
0.0
 40
12.99909571563148
100
AcDbArc
 50
165.7261470226
 51
167.5707993543
  0
ARC
  5
DC
330
1F
100
AcDbEntity
  8
SLD-0
  6
Continuous
 62
   179
100
AcDbCircle
 10
39.1609595043
 20
214.230082471
 30
0.0
 40
13.13549786486725
100
AcDbArc
 50
166.786938914
 51
168.6315912457
  0
ARC
  5
DD
330
1F
100
AcDbEntity
  8
SLD-0
  6
Continuous
 62
   179
100
AcDbCircle
 10
39.2475869894
 20
214.0218791064
 30
0.0
 40
13.26278508428265
100
AcDbArc
 50
167.823532344
 51
169.6681846757
  0
ARC
  5
DE
330
1F
100
AcDbEntity
  8
SLD-0
  6
Continuous
 62
   179
100
AcDbCircle
 10
39.3272840456
 20
213.8111109431
 30
0.0
 40
13.38038368143856
100
AcDbArc
 50
168.841471248
 51
170.6861235797
  0
ARC
  5
DF
330
1F
100
AcDbEntity
  8
SLD-0
  6
Continuous
 62
   179
100
AcDbCircle
 10
39.4007618287
 20
213.5982079813
 30
0.0
 40
13.48880587423456
100
AcDbArc
 50
169.8441899427
 51
171.6888422744
  0
ARC
  5
E0
330
1F
100
AcDbEntity
  8
SLD-0
  6
Continuous
 62
   179
100
AcDbCircle
 10
39.4668530271
 20
213.382678487
 30
0.0
 40
13.58688476042734
100
AcDbArc
 50
170.8297560903
 51
172.674408422
  0
ARC
  5
E1
330
1F
100
AcDbEntity
  8
SLD-0
  6
Continuous
 62
   179
100
AcDbCircle
 10
39.5259332185
 20
213.1652880383
 30
0.0
 40
13.67478489820733
100
AcDbArc
 50
171.8025315382
 51
173.6471838699
  0
ARC
  5
E2
330
1F
100
AcDbEntity
  8
SLD-0
  6
Continuous
 62
   179
100
AcDbCircle
 10
39.5783779811
 20
212.9461710571
 30
0.0
 40
13.75278663010738
100
AcDbArc
 50
172.764062691
 51
174.6087150227
  0
ARC
  5
E3
330
1F
100
AcDbEntity
  8
SLD-0
  6
Continuous
 62
   179
100
AcDbCircle
 10
39.6233055809
 20
212.7251613877
 30
0.0
 40
13.81996599985591
100
AcDbArc
 50
173.7139554917
 51
175.5586078234
  0
ARC
  5
E4
330
1F
100
AcDbEntity
  8
SLD-0
  6
Continuous
 62
   179
100
AcDbCircle
 10
39.6616977517
 20
212.5033351858
 30
0.0
 40
13.87713630735271
100
AcDbArc
 50
174.6577223928
 51
176.5023747245
  0
ARC
  5
E5
330
1F
100
AcDbEntity
  8
SLD-0
  6
Continuous
 62
   179
100
AcDbCircle
 10
75.9404767673
 20
203.0769375225
 30
0.0
 40
10.48143074764404
100
AcDbArc
 50
209.3924321696
 51
212.1011622547
  0
ARC
  5
E6
330
1F
100
AcDbEntity
  8
SLD-0
  6
Continuous
 62
   179
100
AcDbCircle
 10
75.6824411235
 20
202.86993167
 30
0.0
 40
10.15291169236892
100
AcDbArc
 50
211.8854033897
 51
214.5941334747
  0
ARC
  5
E7
330
1F
100
AcDbEntity
  8
SLD-0
  6
Continuous
 62
   179
100
AcDbCircle
 10
75.4144340196
 20
202.6757412715
 30
0.0
 40
9.822039293560112
100
AcDbArc
 50
214.5492577876
 51
217.2579878727
  0
ARC
  5
E8
330
1F
100
AcDbEntity
  8
SLD-0
  6
Continuous
 62
   179
100
AcDbCircle
 10
75.1381867714
 20
202.4941739107
 30
0.0
 40
9.492274675970311
100
AcDbArc
 50
217.3951799839
 51
220.103910069
  0
ARC
  5
E9
330
1F
100
AcDbEntity
  8
SLD-0
  6
Continuous
 62
   179
100
AcDbCircle
 10
74.8532858622
 20
202.3258231044
 30
0.0
 40
9.166076443560565
100
AcDbArc
 50
220.4461996215
 51
223.1549297066
  0
ARC
  5
EA
330
1F
100
AcDbEntity
  8
SLD-0
  6
Continuous
 62
   179
100
AcDbCircle
 10
74.5605766748
 20
202.1712423693
 30
0.0
 40
8.847246039644588
100
AcDbArc
 50
223.7211948975
 51
226.4299249825
  0
ARC
  5
EB
330
1F
100
AcDbEntity
  8
SLD-0
  6
Continuous
 62
   179
100
AcDbCircle
 10
74.2613175587
 20
202.0309052221
 30
0.0
 40
8.540150051385243
100
AcDbArc
 50
227.2356786879
 51
229.944408773
  0
ARC
  5
EC
330
1F
100
AcDbEntity
  8
SLD-0
  6
Continuous
 62
   179
100
AcDbCircle
 10
73.9556794468
 20
201.9043742466
 30
0.0
 40
8.24802340065162
100
AcDbArc
 50
231.003931675
 51
233.7126617601
  0
ARC
  5
ED
330
1F
100
AcDbEntity
  8
SLD-0
  6
Continuous
 62
   179
100
AcDbCircle
 10
73.6440297554
 20
201.7926474092
 30
0.0
 40
7.9756675843075
100
AcDbArc
 50
235.0423932017
 51
237.7511232867
  0
ARC
  5
EE
330
1F
100
AcDbEntity
  8
SLD-0
  6
Continuous
 62
   179
100
AcDbCircle
 10
73.3277983173
 20
201.6960132267
 30
0.0
 40
7.728215845128279
100
AcDbArc
 50
239.3518707639
 51
242.0606008489
  0
ARC
  5
EF
330
1F
100
AcDbEntity
  8
SLD-0
  6
Continuous
 62
   179
100
AcDbCircle
 10
73.0073325486
 20
201.614050766
 30
0.0
 40
7.509644587327978
100
AcDbArc
 50
243.9279846011
 51
246.6367146862
  0
ARC
  5
F0
330
1F
100
AcDbEntity
  8
SLD-0
  6
Continuous
 62
   179
100
AcDbCircle
 10
72.6833928323
 20
201.5475479937
 30
0.0
 40
7.325147926239844
100
AcDbArc
 50
248.7569606023
 51
251.4656906874
  0
ARC
  5
F1
330
1F
100
AcDbEntity
  8
SLD-0
  6
Continuous
 62
   179
100
AcDbCircle
 10
72.3563165846
 20
201.4963869432
 30
0.0
 40
7.178688556935268
100
AcDbArc
 50
253.811666146
 51
256.5203962311
  0
ARC
  5
F2
330
1F
100
AcDbEntity
  8
SLD-0
  6
Continuous
 62
   179
100
AcDbCircle
 10
72.0276951215
 20
201.4605811313
 30
0.0
 40
7.074117053286353
100
AcDbArc
 50
259.0419122208
 51
261.7506423059
  0
ARC
  5
F3
330
1F
100
AcDbEntity
  8
SLD-0
  6
Continuous
 62
   179
100
AcDbCircle
 10
71.6972214094
 20
201.4407135245
 30
0.0
 40
7.014534308325171
100
AcDbArc
 50
264.399730708
 51
267.1084607931
  0
ARC
  5
F4
330
1F
100
AcDbEntity
  8
SLD-0
  6
Continuous
 62
   179
100
AcDbCircle
 10
71.3666982476
 20
201.436239673
 30
0.0
 40
7.001168538586734
100
AcDbArc
 50
269.8090872121
 51
272.5178172972
  0
ARC
  5
F5
330
1F
100
AcDbEntity
  8
SLD-0
  6
Continuous
 62
   179
100
AcDbCircle
 10
71.3667094346
 20
218.4313856426
 30
0.0
 40
7.001213895942881
100
AcDbArc
 50
87.4839289831
 51
90.1925580126
  0
ARC
  5
F6
330
1F
100
AcDbEntity
  8
SLD-0
  6
Continuous
 62
   179
100
AcDbCircle
 10
71.6974837694
 20
218.427108448
 30
0.0
 40
7.014405363808264
100
AcDbArc
 50
92.8952921357
 51
95.6039211652
  0
ARC
  5
F7
330
1F
100
AcDbEntity
  8
SLD-0
  6
Continuous
 62
   179
100
AcDbCircle
 10
72.0277856484
 20
218.4070151078
 30
0.0
 40
7.074207643097192
100
AcDbArc
 50
98.2513834585
 51
100.960012488
  0
ARC
  5
F8
330
1F
100
AcDbEntity
  8
SLD-0
  6
Continuous
 62
   179
100
AcDbCircle
 10
72.3564416512
 20
218.371200622
 30
0.0
 40
7.178806001012508
100
AcDbArc
 50
103.4817187287
 51
106.1903477581
  0
ARC
  5
F9
330
1F
100
AcDbEntity
  8
SLD-0
  6
Continuous
 62
   179
100
AcDbCircle
 10
72.6835573044
 20
218.3202429728
 30
0.0
 40
7.325095278894476
100
AcDbArc
 50
108.5370417059
 51
111.2456707353
  0
ARC
  5
FA
330
1F
100
AcDbEntity
  8
SLD-0
  6
Continuous
 62
   179
100
AcDbCircle
 10
73.0073247141
 20
218.2535261957
 30
0.0
 40
7.509732543431219
100
AcDbArc
 50
113.3640107435
 51
116.0726397729
  0
ARC
  5
FB
330
1F
100
AcDbEntity
  8
SLD-0
  6
Continuous
 62
   179
100
AcDbCircle
 10
73.328040898
 20
218.1717732729
 30
0.0
 40
7.728238645047541
100
AcDbArc
 50
117.9423523051
 51
120.6509813346
  0
ARC
  5
FC
330
1F
100
AcDbEntity
  8
SLD-0
  6
Continuous
 62
   179
100
AcDbCircle
 10
73.6440994533
 20
218.0749262222
 30
0.0
 40
7.975788894077756
100
AcDbArc
 50
122.2497683109
 51
124.9583973403
  0
ARC
  5
FD
330
1F
100
AcDbEntity
  8
SLD-0
  6
Continuous
 62
   179
100
AcDbCircle
 10
73.9557823978
 20
217.9632035523
 30
0.0
 40
8.248163552937685
100
AcDbArc
 50
126.2882862425
 51
128.996915272
  0
ARC
  5
FE
330
1F
100
AcDbEntity
  8
SLD-0
  6
Continuous
 62
   179
100
AcDbCircle
 10
74.2612468375
 20
217.8368937722
 30
0.0
 40
8.540011363448105
100
AcDbArc
 50
130.0564548618
 51
132.7650838912
  0
ARC
  5
FF
330
1F
100
AcDbEntity
  8
SLD-0
  6
Continuous
 62
   179
100
AcDbCircle
 10
74.5609662814
 20
217.6963503907
 30
0.0
 40
8.847575668612114
100
AcDbArc
 50
133.5720629775
 51
136.2806920069
  0
ARC
  5
100
330
1F
100
AcDbEntity
  8
SLD-0
  6
Continuous
 62
   179
100
AcDbCircle
 10
74.8532793267
 20
217.5415639343
 30
0.0
 40
9.166260651810656
100
AcDbArc
 50
136.8442394273
 51
139.5528684567
  0
ARC
  5
101
330
1F
100
AcDbEntity
  8
SLD-0
  6
Continuous
 62
   179
100
AcDbCircle
 10
75.1380000089
 20
217.3736573854
 30
0.0
 40
9.492033957859608
100
AcDbArc
 50
139.8965336911
 51
142.6051627205
  0
ARC
  5
102
330
1F
100
AcDbEntity
  8
SLD-0
  6
Continuous
 62
   179
100
AcDbCircle
 10
75.414705872
 20
217.1918953057
 30
0.0
 40
9.822281617025135
100
AcDbArc
 50
142.7430622207
 51
145.4516912501
  0
ARC
  5
103
330
1F
100
AcDbEntity
  8
SLD-0
  6
Continuous
 62
   179
100
AcDbCircle
 10
75.6823199869
 20
216.9977221689
 30
0.0
 40
10.15282058019884
100
AcDbArc
 50
145.4056067673
 51
148.1142357967
  0
ARC
  5
104
330
1F
100
AcDbEntity
  8
SLD-0
  6
Continuous
 62
   179
100
AcDbCircle
 10
75.9403848977
 20
216.790744028
 30
0.0
 40
10.48134994283718
100
AcDbArc
 50
147.8986997115
 51
150.6073287409
  0
POINT
  5
105
330
1F
100
AcDbEntity
  8
SLD-0
100
AcDbPoint
 10
16.45
 20
285.625
 30
0.0
  0
POINT
  5
106
330
1F
100
AcDbEntity
  8
SLD-0
100
AcDbPoint
 10
16.45
 20
11.125
 30
0.0
  0
POINT
  5
107
330
1F
100
AcDbEntity
  8
SLD-0
100
AcDbPoint
 10
193.25
 20
11.125
 30
0.0
  0
POINT
  5
108
330
1F
100
AcDbEntity
  8
SLD-0
100
AcDbPoint
 10
193.25
 20
285.625
 30
0.0
  0
MTEXT
  5
10A
330
1F
100
AcDbEntity
  8
SLD-0
 62
     7
100
AcDbMText
 10
152.099504
 20
44.6250882496
 30
0.0
 40
4.8000002
 41
0.0
 71
     1
 72
     1
  1
替　刃
  7
SLDTEXTSTYLE1
 73
     1
 44
1.0
  0
MTEXT
  5
10C
330
1F
100
AcDbEntity
  8
SLD-0
 62
     7
100
AcDbMText
 10
150.935386
 20
31.3407192496
 30
0.0
 40
4.8000002
 41
0.0
 71
     1
 72
     1
  1
Ｎ３０１Ｓ
  7
SLDTEXTSTYLE2
 73
     1
 44
1.0
  0
MTEXT
  5
10E
330
1F
100
AcDbEntity
  8
SLD-0
 62
     7
100
AcDbMText
 10
148.722489
 20
18.9918677496
 30
0.0
 40
4.8000002
 41
0.0
 71
     1
 72
     1
  1
１３０２２５
  7
SLDTEXTSTYLE3
 73
     1
 44
1.0
  0
ENDSEC
  0
SECTION
  2
OBJECTS
  0
DICTIONARY
  5
C
330
0
100
AcDbDictionary
281
     1
  3
ACAD_GROUP
350
D
  3
ACAD_LAYOUT
350
1A
  3
ACAD_MLINESTYLE
350
17
  3
ACAD_PLOTSETTINGS
350
19
  3
ACAD_PLOTSTYLENAME
350
E
  0
DICTIONARY
  5
D
102
{ACAD_REACTORS
330
C
102
}
330
C
100
AcDbDictionary
281
     1
  0
DICTIONARY
  5
1A
102
{ACAD_REACTORS
330
C
102
}
330
C
100
AcDbDictionary
281
     1
  3
Layout1
350
1E
  3
Layout2
350
26
  3
Model
350
22
  0
DICTIONARY
  5
17
102
{ACAD_REACTORS
330
C
102
}
330
C
100
AcDbDictionary
281
     1
  3
Standard
350
18
  0
DICTIONARY
  5
19
102
{ACAD_REACTORS
330
C
102
}
330
C
100
AcDbDictionary
281
     1
  0
ACDBDICTIONARYWDFLT
  5
E
102
{ACAD_REACTORS
330
C
102
}
330
C
100
AcDbDictionary
281
     1
  3
Normal
350
F
100
AcDbDictionaryWithDefault
340
F
  0
LAYOUT
  5
1E
102
{ACAD_REACTORS
330
1A
102
}
330
1A
100
AcDbPlotSettings
  1

  2

  4

  6

 40
0.0
 41
0.0
 42
0.0
 43
0.0
 44
0.0
 45
0.0
 46
0.0
 47
0.0
 48
0.0
 49
0.0
140
0.0
141
0.0
142
1.0
143
1.0
 70
   688
 72
     0
 73
     0
 74
     5
  7

 75
    16
147
1.0
148
0.0
149
0.0
100
AcDbLayout
  1
Layout1
 70
     1
 71
     1
 10
0.0
 20
0.0
 11
0.0
 21
0.0
 12
0.0
 22
0.0
 32
0.0
 14
0.0
 24
0.0
 34
0.0
 15
0.0
 25
0.0
 35
0.0
146
0.0
 13
0.0
 23
0.0
 33
0.0
 16
1.0
 26
0.0
 36
0.0
 17
0.0
 27
1.0
 37
0.0
 76
     0
330
1B
  0
LAYOUT
  5
26
102
{ACAD_REACTORS
330
1A
102
}
330
1A
100
AcDbPlotSettings
  1

  2

  4

  6

 40
0.0
 41
0.0
 42
0.0
 43
0.0
 44
0.0
 45
0.0
 46
0.0
 47
0.0
 48
0.0
 49
0.0
140
0.0
141
0.0
142
1.0
143
1.0
 70
   688
 72
     0
 73
     0
 74
     5
  7

 75
    16
147
1.0
148
0.0
149
0.0
100
AcDbLayout
  1
Layout2
 70
     1
 71
     2
 10
0.0
 20
0.0
 11
0.0
 21
0.0
 12
0.0
 22
0.0
 32
0.0
 14
0.0
 24
0.0
 34
0.0
 15
0.0
 25
0.0
 35
0.0
146
0.0
 13
0.0
 23
0.0
 33
0.0
 16
1.0
 26
0.0
 36
0.0
 17
0.0
 27
1.0
 37
0.0
 76
     0
330
23
  0
LAYOUT
  5
22
102
{ACAD_REACTORS
330
1A
102
}
330
1A
100
AcDbPlotSettings
  1

  2

  4

  6

 40
0.0
 41
0.0
 42
0.0
 43
0.0
 44
0.0
 45
0.0
 46
0.0
 47
0.0
 48
0.0
 49
0.0
140
0.0
141
0.0
142
1.0
143
1.0
 70
  1712
 72
     0
 73
     0
 74
     0
  7

 75
     0
147
1.0
148
0.0
149
0.0
100
AcDbLayout
  1
Model
 70
     1
 71
     0
 10
0.0
 20
0.0
 11
0.0
 21
0.0
 12
0.0
 22
0.0
 32
0.0
 14
0.0
 24
0.0
 34
0.0
 15
210.0
 25
297.0
 35
0.0
146
0.0
 13
0.0
 23
0.0
 33
0.0
 16
1.0
 26
0.0
 36
0.0
 17
0.0
 27
1.0
 37
0.0
 76
     0
330
1F
  0
MLINESTYLE
  5
18
102
{ACAD_REACTORS
330
17
102
}
330
17
100
AcDbMlineStyle
  2
Standard
 70
     0
  3

 62
   256
 51
90.0
 52
90.0
 71
     2
 49
0.5
 62
   256
  6
BYLAYER
 49
-0.5
 62
   256
  6
BYLAYER
  0
ACDBPLACEHOLDER
  5
F
102
{ACAD_REACTORS
330
E
102
}
330
E
  0
ENDSEC
  0
EOF
