  0
SECTION
  2
HEADER
  9
$ACADVER
  1
AC1015
  9
$ACADMAINTVER
 70
     6
  9
$DWGCODEPAGE
  3
DOS932
  9
$INSBASE
 10
0.0
 20
0.0
 30
0.0
  9
$EXTMIN
 10
0.0
 20
0.0
 30
0.0
  9
$EXTMAX
 10
210.0
 20
297.0
 30
0.0
  9
$LIMMIN
 10
0.0
 20
0.0
  9
$LIMMAX
 10
0.0
 20
0.0
  9
$ORTHOMODE
 70
     0
  9
$REGENMODE
 70
     1
  9
$FILLMODE
 70
     1
  9
$QTEXTMODE
 70
     0
  9
$MIRRTEXT
 70
     1
  9
$LTSCALE
 40
1.0
  9
$ATTMODE
 70
     1
  9
$TEXTSIZE
 40
3.5
  9
$TRACEWID
 40
1.0
  9
$TEXTSTYLE
  7
Standard
  9
$CLAYER
  8
0
  9
$CELTYPE
  6
ByLayer
  9
$CECOLOR
 62
   256
  9
$CELTSCALE
 40
1.0
  9
$DISPSILH
 70
     0
  9
$DIMSCALE
 40
1.0
  9
$DIMASZ
 40
3.0
  9
$DIMEXO
 40
1.0
  9
$DIMDLI
 40
3.75
  9
$DIMRND
 40
0.0
  9
$DIMDLE
 40
0.0
  9
$DIMEXE
 40
1.0
  9
$DIMTP
 40
0.0
  9
$DIMTM
 40
0.0
  9
$DIMTXT
 40
3.2
  9
$DIMCEN
 40
2.5
  9
$DIMTSZ
 40
0.0
  9
$DIMTOL
 70
     0
  9
$DIMLIM
 70
     0
  9
$DIMTIH
 70
     1
  9
$DIMTOH
 70
     1
  9
$DIMSE1
 70
     0
  9
$DIMSE2
 70
     0
  9
$DIMTAD
 70
     1
  9
$DIMZIN
 70
     1
  9
$DIMBLK
  1

  9
$DIMASO
 70
     1
  9
$DIMSHO
 70
     1
  9
$DIMPOST
  1

  9
$DIMAPOST
  1

  9
$DIMALT
 70
     0
  9
$DIMALTD
 70
     3
  9
$DIMALTF
 40
0.0393700787
  9
$DIMLFAC
 40
1.0
  9
$DIMTOFL
 70
     1
  9
$DIMTVP
 40
0.0
  9
$DIMTIX
 70
     0
  9
$DIMSOXD
 70
     0
  9
$DIMSAH
 70
     0
  9
$DIMBLK1
  1

  9
$DIMBLK2
  1

  9
$DIMSTYLE
  2
ISO-25
  9
$DIMCLRD
 70
     0
  9
$DIMCLRE
 70
     0
  9
$DIMCLRT
 70
     0
  9
$DIMTFAC
 40
1.0
  9
$DIMGAP
 40
1.524
  9
$DIMJUST
 70
     0
  9
$DIMSD1
 70
     0
  9
$DIMSD2
 70
     0
  9
$DIMTOLJ
 70
     0
  9
$DIMTZIN
 70
     1
  9
$DIMALTZ
 70
     0
  9
$DIMALTTZ
 70
     0
  9
$DIMUPT
 70
     0
  9
$DIMDEC
 70
     2
  9
$DIMTDEC
 70
     2
  9
$DIMALTU
 70
     2
  9
$DIMALTTD
 70
     3
  9
$DIMTXSTY
  7
Standard
  9
$DIMAUNIT
 70
     0
  9
$DIMADEC
 70
     0
  9
$DIMALTRND
 40
0.0
  9
$DIMAZIN
 70
     0
  9
$DIMDSEP
 70
    44
  9
$DIMATFIT
 70
     3
  9
$DIMFRAC
 70
     0
  9
$DIMLDRBLK
  1

  9
$DIMLUNIT
 70
     2
  9
$DIMLWD
 70
    -2
  9
$DIMLWE
 70
    -2
  9
$DIMTMOVE
 70
     0
  9
$LUNITS
 70
     2
  9
$LUPREC
 70
     4
  9
$SKETCHINC
 40
1.0
  9
$FILLETRAD
 40
10.0
  9
$AUNITS
 70
     0
  9
$AUPREC
 70
     0
  9
$MENU
  1
.
  9
$ELEVATION
 40
0.0
  9
$PELEVATION
 40
0.0
  9
$THICKNESS
 40
0.0
  9
$LIMCHECK
 70
     0
  9
$CHAMFERA
 40
10.0
  9
$CHAMFERB
 40
10.0
  9
$CHAMFERC
 40
20.0
  9
$CHAMFERD
 40
0.0
  9
$SKPOLY
 70
     0
  9
$TDCREATE
 40
2454307.672475405
  9
$TDUCREATE
 40
2454307.297475405
  9
$TDUPDATE
 40
2454307.672475417
  9
$TDUUPDATE
 40
2454307.297475417
  9
$TDINDWG
 40
0.0000000116
  9
$TDUSRTIMER
 40
0.0000000116
  9
$USRTIMER
 70
     1
  9
$ANGBASE
 50
0.0
  9
$ANGDIR
 70
     0
  9
$PDMODE
 70
     0
  9
$PDSIZE
 40
-1.0
  9
$PLINEWID
 40
0.0
  9
$SPLFRAME
 70
     0
  9
$SPLINETYPE
 70
     6
  9
$SPLINESEGS
 70
     8
  9
$HANDSEED
  5
1CA
  9
$SURFTAB1
 70
     6
  9
$SURFTAB2
 70
     6
  9
$SURFTYPE
 70
     6
  9
$SURFU
 70
     6
  9
$SURFV
 70
     6
  9
$UCSBASE
  2

  9
$UCSNAME
  2

  9
$UCSORG
 10
0.0
 20
0.0
 30
0.0
  9
$UCSXDIR
 10
1.0
 20
0.0
 30
0.0
  9
$UCSYDIR
 10
0.0
 20
1.0
 30
0.0
  9
$UCSORTHOREF
  2

  9
$UCSORTHOVIEW
 70
     0
  9
$UCSORGTOP
 10
0.0
 20
0.0
 30
0.0
  9
$UCSORGBOTTOM
 10
0.0
 20
0.0
 30
0.0
  9
$UCSORGLEFT
 10
0.0
 20
0.0
 30
0.0
  9
$UCSORGRIGHT
 10
0.0
 20
0.0
 30
0.0
  9
$UCSORGFRONT
 10
0.0
 20
0.0
 30
0.0
  9
$UCSORGBACK
 10
0.0
 20
0.0
 30
0.0
  9
$PUCSBASE
  2

  9
$PUCSNAME
  2

  9
$PUCSORG
 10
0.0
 20
0.0
 30
0.0
  9
$PUCSXDIR
 10
1.0
 20
0.0
 30
0.0
  9
$PUCSYDIR
 10
0.0
 20
1.0
 30
0.0
  9
$PUCSORTHOREF
  2

  9
$PUCSORTHOVIEW
 70
     0
  9
$PUCSORGTOP
 10
0.0
 20
0.0
 30
0.0
  9
$PUCSORGBOTTOM
 10
0.0
 20
0.0
 30
0.0
  9
$PUCSORGLEFT
 10
0.0
 20
0.0
 30
0.0
  9
$PUCSORGRIGHT
 10
0.0
 20
0.0
 30
0.0
  9
$PUCSORGFRONT
 10
0.0
 20
0.0
 30
0.0
  9
$PUCSORGBACK
 10
0.0
 20
0.0
 30
0.0
  9
$USERI1
 70
     0
  9
$USERI2
 70
     0
  9
$USERI3
 70
     0
  9
$USERI4
 70
     0
  9
$USERI5
 70
     0
  9
$USERR1
 40
0.0
  9
$USERR2
 40
0.0
  9
$USERR3
 40
0.0
  9
$USERR4
 40
0.0
  9
$USERR5
 40
0.0
  9
$WORLDVIEW
 70
     1
  9
$SHADEDGE
 70
     3
  9
$SHADEDIF
 70
    70
  9
$TILEMODE
 70
     1
  9
$MAXACTVP
 70
    64
  9
$PINSBASE
 10
0.0
 20
0.0
 30
0.0
  9
$PLIMCHECK
 70
     0
  9
$PEXTMIN
 10
1.0000000000E+20
 20
1.0000000000E+20
 30
1.0000000000E+20
  9
$PEXTMAX
 10
-1.0000000000E+20
 20
-1.0000000000E+20
 30
-1.0000000000E+20
  9
$PLIMMIN
 10
0.0
 20
0.0
  9
$PLIMMAX
 10
420.0
 20
297.0
  9
$UNITMODE
 70
     0
  9
$VISRETAIN
 70
     1
  9
$PLINEGEN
 70
     0
  9
$PSLTSCALE
 70
     1
  9
$TREEDEPTH
 70
  3020
  9
$CMLSTYLE
  2
Standard
  9
$CMLJUST
 70
     0
  9
$CMLSCALE
 40
20.0
  9
$PROXYGRAPHICS
 70
     1
  9
$MEASUREMENT
 70
     1
  9
$CELWEIGHT
370
    -1
  9
$ENDCAPS
280
     0
  9
$JOINSTYLE
280
     0
  9
$LWDISPLAY
290
     1
  9
$INSUNITS
 70
     4
  9
$HYPERLINKBASE
  1

  9
$STYLESHEET
  1

  9
$XEDIT
290
     1
  9
$CEPSNTYPE
380
     0
  9
$PSTYLEMODE
290
     1
  9
$FINGERPRINTGUID
  2
{7B1BAB33-CB88-4B5B-BE35-50C9B20D2252}
  9
$VERSIONGUID
  2
{FAEB1C32-E019-11D5-929B-00C0DF256EC4}
  9
$EXTNAMES
290
     1
  9
$PSVPSCALE
 40
0.0
  9
$OLESTARTUP
290
     0
  0
ENDSEC
  0
SECTION
  2
CLASSES
  0
CLASS
  1
ACDBDICTIONARYWDFLT
  2
AcDbDictionaryWithDefault
  3
ObjectDBX Classes
 90
        0
280
     0
281
     0
  0
CLASS
  1
ACDBPLACEHOLDER
  2
AcDbPlaceHolder
  3
ObjectDBX Classes
 90
        0
280
     0
281
     0
  0
CLASS
  1
LAYOUT
  2
AcDbLayout
  3
ObjectDBX Classes
 90
        0
280
     0
281
     0
  0
ENDSEC
  0
SECTION
  2
TABLES
  0
TABLE
  2
VPORT
  5
8
330
0
100
AcDbSymbolTable
 70
     1
  0
VPORT
  5
29
330
8
100
AcDbSymbolTableRecord
100
AcDbViewportTableRecord
  2
*Active
 70
     0
 10
0.0
 20
0.0
 11
1.0
 21
1.0
 12
105.0
 22
148.5
 13
0.0
 23
0.0
 14
10.0
 24
10.0
 15
10.0
 25
10.0
 16
0.0
 26
0.0
 36
1.0
 17
0.0
 27
0.0
 37
0.0
 40
297.0
 41
1.9729729729
 42
50.0
 43
0.0
 44
0.0
 50
0.0
 51
0.0
 71
     0
 72
  2000
 73
     1
 74
     3
 75
     0
 76
     0
 77
     0
 78
     0
281
     0
 65
     1
110
0.0
120
0.0
130
0.0
111
1.0
121
0.0
131
0.0
112
0.0
122
1.0
132
0.0
 79
     0
146
0.0
  0
ENDTAB
  0
TABLE
  2
LTYPE
  5
5
330
0
100
AcDbSymbolTable
 70
     6
  0
LTYPE
  5
14
330
5
100
AcDbSymbolTableRecord
100
AcDbLinetypeTableRecord
  2
ByBlock
 70
     0
  3

 72
    65
 73
     0
 40
0.0
  0
LTYPE
  5
15
330
5
100
AcDbSymbolTableRecord
100
AcDbLinetypeTableRecord
  2
ByLayer
 70
     0
  3

 72
    65
 73
     0
 40
0.0
  0
LTYPE
  5
16
330
5
100
AcDbSymbolTableRecord
100
AcDbLinetypeTableRecord
  2
Continuous
 70
     0
  3
Solid line
 72
    65
 73
     0
 40
0.0
  0
LTYPE
  5
2A
330
5
100
AcDbSymbolTableRecord
100
AcDbLinetypeTableRecord
  2
HIDDEN
 70
     0
  3
Hidden __ __ __ __ __ __ __ __ __ __ __ __ __ __
 72
    65
 73
     2
 40
1.905
 49
1.27
 74
     0
 49
-0.635
 74
     0
  0
LTYPE
  5
2B
330
5
100
AcDbSymbolTableRecord
100
AcDbLinetypeTableRecord
  2
PHANTOM
 70
     0
  3
Phantom ______  __  __  ______  __  __  ______
 72
    65
 73
     6
 40
12.7
 49
6.35
 74
     0
 49
-1.27
 74
     0
 49
1.27
 74
     0
 49
-1.27
 74
     0
 49
1.27
 74
     0
 49
-1.27
 74
     0
  0
LTYPE
  5
2C
330
5
100
AcDbSymbolTableRecord
100
AcDbLinetypeTableRecord
  2
CENTER
 70
     0
  3
Center ____ _ ____ _ ____ _ ____ _ ____ _ ____
 72
    65
 73
     4
 40
10.16
 49
6.35
 74
     0
 49
-1.27
 74
     0
 49
1.27
 74
     0
 49
-1.27
 74
     0
  0
LTYPE
  5
2D
330
5
100
AcDbSymbolTableRecord
100
AcDbLinetypeTableRecord
  2
CENTERX2
 70
     0
  3
Center (2x) ________  __  ________  __  _____
 72
    65
 73
     4
 40
20.32
 49
12.7
 74
     0
 49
-2.54
 74
     0
 49
2.54
 74
     0
 49
-2.54
 74
     0
  0
LTYPE
  5
2E
330
5
100
AcDbSymbolTableRecord
100
AcDbLinetypeTableRecord
  2
DOT2
 70
     0
  3
Dot (.5x) ........................................
 72
    65
 73
     2
 40
0.635
 49
0.0
 74
     0
 49
-0.635
 74
     0
  0
ENDTAB
  0
TABLE
  2
LAYER
  5
2
330
0
100
AcDbSymbolTable
 70
     2
  0
LAYER
  5
10
330
2
100
AcDbSymbolTableRecord
100
AcDbLayerTableRecord
  2
0
 70
     0
 62
     7
  6
Continuous
370
    -3
390
F
  0
LAYER
  5
2F
330
2
100
AcDbSymbolTableRecord
100
AcDbLayerTableRecord
  2
SLD-0
 70
     0
 62
   179
  6
Continuous
370
     0
390
F
  0
ENDTAB
  0
TABLE
  2
STYLE
  5
3
330
0
100
AcDbSymbolTable
 70
    10
  0
STYLE
  5
11
330
3
100
AcDbSymbolTableRecord
100
AcDbTextStyleTableRecord
  2
Standard
 70
     0
 40
0.0
 41
1.0
 50
0.0
 71
     0
 42
2.5
  3
txt
  4
bigfont
  0
STYLE
  5
33
330
3
100
AcDbSymbolTableRecord
100
AcDbTextStyleTableRecord
  2
SLDTEXTSTYLE0
 70
     0
 40
0.0
 41
0.7
 50
0.0
 71
     0
 42
0.2
  3
TXT
  4
bigfont
  0
STYLE
  5
3E
330
3
100
AcDbSymbolTableRecord
100
AcDbTextStyleTableRecord
  2
SLDTEXTSTYLE1
 70
     0
 40
0.0
 41
0.6272516084
 50
0.0
 71
     0
 42
0.2
  3
TXT
  4
bigfont
  0
STYLE
  5
52
330
3
100
AcDbSymbolTableRecord
100
AcDbTextStyleTableRecord
  2
SLDTEXTSTYLE2
 70
     0
 40
0.0
 41
0.6222509779
 50
0.0
 71
     0
 42
0.2
  3
TXT
  4
bigfont
  0
STYLE
  5
54
330
3
100
AcDbSymbolTableRecord
100
AcDbTextStyleTableRecord
  2
SLDTEXTSTYLE3
 70
     0
 40
0.0
 41
0.6255252021
 50
0.0
 71
     0
 42
0.2
  3
TXT
  4
bigfont
  0
STYLE
  5
1BC
330
3
100
AcDbSymbolTableRecord
100
AcDbTextStyleTableRecord
  2
SLDTEXTSTYLE4
 70
     0
 40
0.0
 41
0.6219644495
 50
0.0
 71
     0
 42
0.2
  3
TXT
  4
bigfont
  0
STYLE
  5
1BE
330
3
100
AcDbSymbolTableRecord
100
AcDbTextStyleTableRecord
  2
SLDTEXTSTYLE5
 70
     0
 40
0.0
 41
0.6255251432
 50
0.0
 71
     0
 42
0.2
  3
TXT
  4
bigfont
  0
STYLE
  5
1C0
330
3
100
AcDbSymbolTableRecord
100
AcDbTextStyleTableRecord
  2
SLDTEXTSTYLE6
 70
     0
 40
0.0
 41
0.6226035495
 50
0.0
 71
     0
 42
0.2
  3
TXT
  4
bigfont
  0
STYLE
  5
1C2
330
3
100
AcDbSymbolTableRecord
100
AcDbTextStyleTableRecord
  2
SLDTEXTSTYLE7
 70
     0
 40
0.0
 41
0.6244080758
 50
0.0
 71
     0
 42
0.2
  3
TXT
  4
bigfont
  0
STYLE
  5
1C4
330
3
100
AcDbSymbolTableRecord
100
AcDbTextStyleTableRecord
  2
SLDTEXTSTYLE8
 70
     0
 40
0.0
 41
0.7579342105
 50
0.0
 71
     0
 42
0.2
  3
TXT
  4
bigfont
  0
ENDTAB
  0
TABLE
  2
VIEW
  5
6
330
0
100
AcDbSymbolTable
 70
     0
  0
ENDTAB
  0
TABLE
  2
UCS
  5
7
330
0
100
AcDbSymbolTable
 70
     0
  0
ENDTAB
  0
TABLE
  2
APPID
  5
9
330
0
100
AcDbSymbolTable
 70
     1
  0
APPID
  5
12
330
9
100
AcDbSymbolTableRecord
100
AcDbRegAppTableRecord
  2
ACAD
 70
     0
  0
ENDTAB
  0
TABLE
  2
DIMSTYLE
  5
A
330
0
100
AcDbSymbolTable
 70
     1
100
AcDbDimStyleTable
  0
DIMSTYLE
105
27
330
A
100
AcDbSymbolTableRecord
100
AcDbDimStyleTableRecord
  2
ISO-25
 70
     0
 41
2.5
 42
0.625
 43
3.75
 44
1.25
 73
     0
 74
     0
 77
     1
 78
     8
140
2.5
141
2.5
143
0.0393700787
147
0.625
171
     3
172
     1
271
     2
272
     2
274
     3
278
    44
283
     0
284
     8
340
11
  0
ENDTAB
  0
TABLE
  2
BLOCK_RECORD
  5
1
330
0
100
AcDbSymbolTable
 70
     6
  0
BLOCK_RECORD
  5
1F
330
1
100
AcDbSymbolTableRecord
100
AcDbBlockTableRecord
  2
*Model_Space
340
22
  0
BLOCK_RECORD
  5
1B
330
1
100
AcDbSymbolTableRecord
100
AcDbBlockTableRecord
  2
*Paper_Space
340
1E
  0
BLOCK_RECORD
  5
23
330
1
100
AcDbSymbolTableRecord
100
AcDbBlockTableRecord
  2
*Paper_Space0
340
26
  0
BLOCK_RECORD
  5
30
330
1
100
AcDbSymbolTableRecord
100
AcDbBlockTableRecord
  2
注記
340
0
  0
BLOCK_RECORD
  5
36
330
1
100
AcDbSymbolTableRecord
100
AcDbBlockTableRecord
  2
KOZU0001
340
0
102
{BLKREFS
331
1C6
102
}
  0
BLOCK_RECORD
  5
40
330
1
100
AcDbSymbolTableRecord
100
AcDbBlockTableRecord
  2
KOZU0002
340
0
102
{BLKREFS
331
1C7
102
}
  0
BLOCK_RECORD
  5
4A
330
1
100
AcDbSymbolTableRecord
100
AcDbBlockTableRecord
  2
KOZU0003
340
0
102
{BLKREFS
331
1C8
102
}
  0
BLOCK_RECORD
  5
56
330
1
100
AcDbSymbolTableRecord
100
AcDbBlockTableRecord
  2
KOZU0004
340
0
102
{BLKREFS
331
1C9
102
}
  0
ENDTAB
  0
ENDSEC
  0
SECTION
  2
BLOCKS
  0
BLOCK
  5
20
330
1F
100
AcDbEntity
  8
0
100
AcDbBlockBegin
  2
*Model_Space
 70
     0
 71
     0
 10
0.0
 20
0.0
 30
0.0
  3
*Model_Space
  1

  0
ENDBLK
  5
21
330
1F
100
AcDbEntity
  8
0
100
AcDbBlockEnd
  0
BLOCK
  5
1C
330
1B
100
AcDbEntity
 67
     1
  8
0
100
AcDbBlockBegin
  2
*Paper_Space
 70
     0
 71
     0
 10
0.0
 20
0.0
 30
0.0
  3
*Paper_Space
  1

  0
ENDBLK
  5
1D
330
1B
100
AcDbEntity
 67
     1
  8
0
100
AcDbBlockEnd
  0
BLOCK
  5
24
330
23
100
AcDbEntity
  8
0
100
AcDbBlockBegin
  2
*Paper_Space0
 70
     0
 71
     0
 10
0.0
 20
0.0
 30
0.0
  3
*Paper_Space0
  1

  0
ENDBLK
  5
25
330
23
100
AcDbEntity
  8
0
100
AcDbBlockEnd
  0
BLOCK
  5
31
330
30
100
AcDbEntity
  8
0
100
AcDbBlockBegin
  2
注記
 70
     0
 71
     0
 10
0.0
 20
0.0
 30
0.0
  3
注記
  1

  0
MTEXT
  5
34
330
30
100
AcDbEntity
  8
0
  6
Continuous
 62
     7
370
     0
100
AcDbMText
 10
0.2636785918
 20
9.0739778448
 30
0.0
 40
3.5
 41
0.0
 71
     1
 72
     1
  1
１．特記ナキ角部ハ、バリ　カエリノ無キコト。
  7
SLDTEXTSTYLE0
 73
     1
 44
1.0
  0
MTEXT
  5
35
330
30
100
AcDbEntity
  8
0
  6
Continuous
 62
     7
370
     0
100
AcDbMText
 10
0.2636785918
 20
3.5759549983
 30
0.0
 40
3.5
 41
0.0
 71
     1
 72
     1
  1
２．特記ナキ隅部ハ、Ｒ０．４ＭＡＸトスル。
  7
SLDTEXTSTYLE0
 73
     1
 44
1.0
  0
ENDBLK
  5
32
330
30
100
AcDbEntity
  8
0
100
AcDbBlockEnd
  0
BLOCK
  5
37
330
36
100
AcDbEntity
  8
0
100
AcDbBlockBegin
  2
KOZU0001
 70
     0
 71
     0
 10
0.0
 20
0.0
 30
0.0
  3
KOZU0001
  1

  0
LINE
  5
39
330
36
100
AcDbEntity
  8
SLD-0
  6
Continuous
 62
   179
100
AcDbLine
 10
0.0
 20
0.0
 30
0.0
 11
6.1168632
 21
10.638717
 31
0.0
  0
LINE
  5
3A
330
36
100
AcDbEntity
  8
SLD-0
  6
Continuous
 62
   179
100
AcDbLine
 10
0.0
 20
0.0
 30
0.0
 11
0.62841966
 21
3.0992077
 31
0.0
  0
LINE
  5
3B
330
36
100
AcDbEntity
  8
SLD-0
  6
Continuous
 62
   179
100
AcDbLine
 10
0.0
 20
0.0
 30
0.0
 11
2.3622604
 21
2.1023144
 31
0.0
  0
LINE
  5
3C
330
36
100
AcDbEntity
  8
SLD-0
  6
Continuous
 62
   179
100
AcDbLine
 10
0.0
 20
0.0
 30
0.0
 11
6.1168632
 21
10.638717
 31
0.0
  0
LINE
  5
3D
330
36
100
AcDbEntity
  8
SLD-0
  6
Continuous
 62
   179
100
AcDbLine
 10
6.1168632
 20
10.638717
 30
0.0
 11
20.745958
 21
10.638713
 31
0.0
  0
MTEXT
  5
3F
330
36
100
AcDbEntity
  8
SLD-0
100
AcDbMText
 10
7.8896486
 20
14.0934325369
 30
0.0
 40
3.2
 41
0.0
 71
     1
 72
     1
  1
４－Ｍ４
  7
SLDTEXTSTYLE1
 73
     1
 44
1.0
  0
ENDBLK
  5
38
330
36
100
AcDbEntity
  8
0
100
AcDbBlockEnd
  0
BLOCK
  5
41
330
40
100
AcDbEntity
  8
0
100
AcDbBlockBegin
  2
KOZU0002
 70
     0
 71
     0
 10
0.0
 20
0.0
 30
0.0
  3
KOZU0002
  1

  0
LINE
  5
43
330
40
100
AcDbEntity
  8
SLD-0
  6
Continuous
 62
   179
100
AcDbLine
 10
0.0
 20
0.0
 30
0.0
 11
8.763571
 21
-16.755664
 31
0.0
  0
LINE
  5
44
330
40
100
AcDbEntity
  8
SLD-0
  6
Continuous
 62
   179
100
AcDbLine
 10
0.0
 20
0.0
 30
0.0
 11
2.2764951
 21
-2.1948963
 31
0.0
  0
LINE
  5
45
330
40
100
AcDbEntity
  8
SLD-0
  6
Continuous
 62
   179
100
AcDbLine
 10
0.0
 20
0.0
 30
0.0
 11
0.50425827
 21
-3.1218141
 31
0.0
  0
LINE
  5
46
330
40
100
AcDbEntity
  8
SLD-0
  6
Continuous
 62
   179
100
AcDbLine
 10
0.0
 20
0.0
 30
0.0
 11
8.763571
 21
-16.755664
 31
0.0
  0
LINE
  5
47
330
40
100
AcDbEntity
  8
SLD-0
  6
Continuous
 62
   179
100
AcDbLine
 10
8.763571
 20
-16.755664
 30
0.0
 11
31.291769
 21
-16.755659
 31
0.0
  0
MTEXT
  5
48
330
40
100
AcDbEntity
  8
SLD-0
100
AcDbMText
 10
17.577768
 20
-8.5009394631
 30
0.0
 40
3.2
 41
0.0
 71
     1
 72
     1
  1
配管ネジ
  7
SLDTEXTSTYLE1
 73
     1
 44
1.0
  0
MTEXT
  5
49
330
40
100
AcDbEntity
  8
SLD-0
100
AcDbMText
 10
17.577768
 20
-13.3009394631
 30
0.0
 40
3.2
 41
0.0
 71
     1
 72
     1
  1
２－Ｍ５
  7
SLDTEXTSTYLE1
 73
     1
 44
1.0
  0
ENDBLK
  5
42
330
40
100
AcDbEntity
  8
0
100
AcDbBlockEnd
  0
BLOCK
  5
4B
330
4A
100
AcDbEntity
  8
0
100
AcDbBlockBegin
  2
KOZU0003
 70
     0
 71
     0
 10
0.0
 20
0.0
 30
0.0
  3
KOZU0003
  1

  0
LINE
  5
4D
330
4A
100
AcDbEntity
  8
SLD-0
  6
Continuous
 62
   179
100
AcDbLine
 10
0.0
 20
0.0
 30
0.0
 11
12.512737
 21
-24.860833
 31
0.0
  0
LINE
  5
4E
330
4A
100
AcDbEntity
  8
SLD-0
  6
Continuous
 62
   179
100
AcDbLine
 10
0.0
 20
0.0
 30
0.0
 11
2.2419756
 21
-2.2301447
 31
0.0
  0
LINE
  5
4F
330
4A
100
AcDbEntity
  8
SLD-0
  6
Continuous
 62
   179
100
AcDbLine
 10
0.0
 20
0.0
 30
0.0
 11
0.45549367
 21
-3.1293011
 31
0.0
  0
LINE
  5
50
330
4A
100
AcDbEntity
  8
SLD-0
  6
Continuous
 62
   179
100
AcDbLine
 10
0.0
 20
0.0
 30
0.0
 11
12.512737
 21
-24.860833
 31
0.0
  0
LINE
  5
51
330
4A
100
AcDbEntity
  8
SLD-0
  6
Continuous
 62
   179
100
AcDbLine
 10
12.512737
 20
-24.860833
 30
0.0
 11
47.987156
 21
-24.860841
 31
0.0
  0
MTEXT
  5
53
330
4A
100
AcDbEntity
  8
SLD-0
100
AcDbMText
 10
15.073153
 20
-21.4061214631
 30
0.0
 40
3.2
 41
0.0
 71
     1
 72
     1
  1
有接点オートスイッチ
  7
SLDTEXTSTYLE2
 73
     1
 44
1.0
  0
MTEXT
  5
55
330
4A
100
AcDbEntity
  8
SLD-0
100
AcDbMText
 10
15.073153
 20
-27.0221214631
 30
0.0
 40
3.2
 41
0.0
 71
     1
 72
     1
  1
（別売品）
  7
SLDTEXTSTYLE3
 73
     1
 44
1.0
  0
ENDBLK
  5
4C
330
4A
100
AcDbEntity
  8
0
100
AcDbBlockEnd
  0
BLOCK
  5
57
330
56
100
AcDbEntity
  8
0
100
AcDbBlockBegin
  2
KOZU0004
 70
     0
 71
     0
 10
0.0
 20
0.0
 30
0.0
  3
KOZU0004
  1

  0
LINE
  5
59
330
56
100
AcDbEntity
  8
SLD-0
  6
Continuous
 62
   179
100
AcDbLine
 10
0.0
 20
0.0
 30
0.0
 11
9.7673848
 21
7.2215824
 31
0.0
  0
LINE
  5
5A
330
56
100
AcDbEntity
  8
SLD-0
  6
Continuous
 62
   179
100
AcDbLine
 10
0.0
 20
0.0
 30
0.0
 11
1.8177586
 21
2.5876154
 31
0.0
  0
LINE
  5
5B
330
56
100
AcDbEntity
  8
SLD-0
  6
Continuous
 62
   179
100
AcDbLine
 10
0.0
 20
0.0
 30
0.0
 11
3.0067761
 21
0.97943716
 31
0.0
  0
LINE
  5
5C
330
56
100
AcDbEntity
  8
SLD-0
  6
Continuous
 62
   179
100
AcDbLine
 10
0.0
 20
0.0
 30
0.0
 11
9.7673848
 21
7.2215824
 31
0.0
  0
LINE
  5
5D
330
56
100
AcDbEntity
  8
SLD-0
  6
Continuous
 62
   179
100
AcDbLine
 10
9.7673848
 20
7.2215824
 30
0.0
 11
29.721006
 21
7.2215814
 31
0.0
  0
MTEXT
  5
5E
330
56
100
AcDbEntity
  8
SLD-0
100
AcDbMText
 10
12.807003
 20
15.4763015369
 30
0.0
 40
3.2
 41
0.0
 71
     1
 72
     1
  1
２－Ｍ５
  7
SLDTEXTSTYLE1
 73
     1
 44
1.0
  0
MTEXT
  5
5F
330
56
100
AcDbEntity
  8
SLD-0
100
AcDbMText
 10
12.807003
 20
10.6763009369
 30
0.0
 40
3.2
 41
0.0
 71
     1
 72
     1
  1
（取付用）
  7
SLDTEXTSTYLE3
 73
     1
 44
1.0
  0
ENDBLK
  5
58
330
56
100
AcDbEntity
  8
0
100
AcDbBlockEnd
  0
ENDSEC
  0
SECTION
  2
ENTITIES
  0
LINE
  5
60
330
1F
100
AcDbEntity
  8
SLD-0
  6
Continuous
 62
   179
100
AcDbLine
 10
132.910553
 20
122.11533
 30
0.0
 11
132.910553
 21
167.51532
 31
0.0
  0
LINE
  5
61
330
1F
100
AcDbEntity
  8
SLD-0
  6
Continuous
 62
   179
100
AcDbLine
 10
157.910553
 20
122.11533
 30
0.0
 11
157.910553
 21
167.51532
 31
0.0
  0
LINE
  5
62
330
1F
100
AcDbEntity
  8
SLD-0
  6
Continuous
 62
   179
100
AcDbLine
 10
133.210552
 20
121.81532
 30
0.0
 11
157.61055
 21
121.81532
 31
0.0
  0
LINE
  5
63
330
1F
100
AcDbEntity
  8
SLD-0
  6
Continuous
 62
   179
100
AcDbLine
 10
133.210552
 20
167.81532
 30
0.0
 11
157.61055
 21
167.81532
 31
0.0
  0
LINE
  5
64
330
1F
100
AcDbEntity
  8
SLD-0
  6
Continuous
 62
   179
100
AcDbLine
 10
157.61055
 20
121.81532
 30
0.0
 11
157.910553
 21
122.11533
 31
0.0
  0
LINE
  5
65
330
1F
100
AcDbEntity
  8
SLD-0
  6
Continuous
 62
   179
100
AcDbLine
 10
157.910555
 20
167.51534
 30
0.0
 11
157.61055
 21
167.81532
 31
0.0
  0
LINE
  5
66
330
1F
100
AcDbEntity
  8
SLD-0
  6
Continuous
 62
   179
100
AcDbLine
 10
132.910553
 20
167.51532
 30
0.0
 11
133.210552
 21
167.81532
 31
0.0
  0
LINE
  5
67
330
1F
100
AcDbEntity
  8
SLD-0
  6
Continuous
 62
   179
100
AcDbLine
 10
133.210544
 20
121.81531
 30
0.0
 11
132.910545
 21
122.11531
 31
0.0
  0
LINE
  5
68
330
1F
100
AcDbEntity
  8
SLD-0
  6
CENTER
 62
   179
100
AcDbLine
 10
141.410553
 20
131.81532
 30
0.0
 11
149.410553
 21
131.81532
 31
0.0
  0
LINE
  5
69
330
1F
100
AcDbEntity
  8
SLD-0
  6
CENTER
 62
   179
100
AcDbLine
 10
141.410553
 20
157.81532
 30
0.0
 11
149.410553
 21
157.81532
 31
0.0
  0
LINE
  5
6A
330
1F
100
AcDbEntity
  8
SLD-0
  6
PHANTOM
 62
   179
100
AcDbLine
 10
133.910553
 20
179.81532
 30
0.0
 11
156.910553
 21
179.81532
 31
0.0
  0
LINE
  5
6B
330
1F
100
AcDbEntity
  8
SLD-0
  6
PHANTOM
 62
   179
100
AcDbLine
 10
133.910553
 20
187.81532
 30
0.0
 11
156.910553
 21
187.81532
 31
0.0
  0
LINE
  5
6C
330
1F
100
AcDbEntity
  8
SLD-0
  6
PHANTOM
 62
   179
100
AcDbLine
 10
157.410553
 20
180.31532
 30
0.0
 11
157.410553
 21
187.31532
 31
0.0
  0
LINE
  5
6D
330
1F
100
AcDbEntity
  8
SLD-0
  6
PHANTOM
 62
   179
100
AcDbLine
 10
133.410553
 20
180.31532
 30
0.0
 11
133.410553
 21
187.31532
 31
0.0
  0
LINE
  5
6E
330
1F
100
AcDbEntity
  8
SLD-0
  6
PHANTOM
 62
   179
100
AcDbLine
 10
133.910553
 20
179.81532
 30
0.0
 11
133.410553
 21
180.31532
 31
0.0
  0
LINE
  5
6F
330
1F
100
AcDbEntity
  8
SLD-0
  6
PHANTOM
 62
   179
100
AcDbLine
 10
133.410559
 20
187.31534
 30
0.0
 11
133.91056
 21
187.81534
 31
0.0
  0
LINE
  5
70
330
1F
100
AcDbEntity
  8
SLD-0
  6
PHANTOM
 62
   179
100
AcDbLine
 10
156.910553
 20
179.81532
 30
0.0
 11
157.410553
 21
180.31532
 31
0.0
  0
LINE
  5
71
330
1F
100
AcDbEntity
  8
SLD-0
  6
PHANTOM
 62
   179
100
AcDbLine
 10
157.410548
 20
187.31531
 30
0.0
 11
156.910547
 21
187.81531
 31
0.0
  0
LINE
  5
72
330
1F
100
AcDbEntity
  8
SLD-0
  6
CENTER
 62
   179
100
AcDbLine
 10
131.410553
 20
138.81532
 30
0.0
 11
159.410553
 21
138.81532
 31
0.0
  0
LINE
  5
73
330
1F
100
AcDbEntity
  8
SLD-0
  6
Continuous
 62
   179
100
AcDbLine
 10
53.21054
 20
121.81532
 30
0.0
 11
92.61057
 21
121.81532
 31
0.0
  0
LINE
  5
74
330
1F
100
AcDbEntity
  8
SLD-0
  6
Continuous
 62
   179
100
AcDbLine
 10
53.21054
 20
167.81532
 30
0.0
 11
92.61057
 21
167.81532
 31
0.0
  0
LINE
  5
75
330
1F
100
AcDbEntity
  8
SLD-0
  6
Continuous
 62
   179
100
AcDbLine
 10
92.91055
 20
167.51532
 30
0.0
 11
92.91055
 21
122.11533
 31
0.0
  0
LINE
  5
76
330
1F
100
AcDbEntity
  8
SLD-0
  6
Continuous
 62
   179
100
AcDbLine
 10
53.41055
 20
169.81532
 30
0.0
 11
92.41055
 21
169.81532
 31
0.0
  0
LINE
  5
77
330
1F
100
AcDbEntity
  8
SLD-0
  6
Continuous
 62
   179
100
AcDbLine
 10
53.41055
 20
177.81532
 30
0.0
 11
92.41055
 21
177.81532
 31
0.0
  0
LINE
  5
78
330
1F
100
AcDbEntity
  8
SLD-0
  6
Continuous
 62
   179
100
AcDbLine
 10
52.91055
 20
177.31532
 30
0.0
 11
52.91055
 21
170.31532
 31
0.0
  0
LINE
  5
79
330
1F
100
AcDbEntity
  8
SLD-0
  6
Continuous
 62
   179
100
AcDbLine
 10
92.91055
 20
177.31532
 30
0.0
 11
92.91055
 21
170.31532
 31
0.0
  0
LINE
  5
7A
330
1F
100
AcDbEntity
  8
SLD-0
  6
CENTER
 62
   179
100
AcDbLine
 10
72.91055
 20
179.31532
 30
0.0
 11
72.91055
 21
120.31532
 31
0.0
  0
LINE
  5
7B
330
1F
100
AcDbEntity
  8
SLD-0
  6
CENTER
 62
   179
100
AcDbLine
 10
57.91055
 20
179.31532
 30
0.0
 11
57.91055
 21
166.31532
 31
0.0
  0
LINE
  5
7C
330
1F
100
AcDbEntity
  8
SLD-0
  6
CENTER
 62
   179
100
AcDbLine
 10
60.91055
 20
138.81532
 30
0.0
 11
52.91055
 21
138.81532
 31
0.0
  0
LINE
  5
7D
330
1F
100
AcDbEntity
  8
SLD-0
  6
CENTER
 62
   179
100
AcDbLine
 10
56.91055
 20
142.81532
 30
0.0
 11
56.91055
 21
134.81532
 31
0.0
  0
LINE
  5
7E
330
1F
100
AcDbEntity
  8
SLD-0
  6
Continuous
 62
   179
100
AcDbLine
 10
80.81055
 20
167.81532
 30
0.0
 11
80.81055
 21
121.81532
 31
0.0
  0
LINE
  5
7F
330
1F
100
AcDbEntity
  8
SLD-0
  6
CENTER
 62
   179
100
AcDbLine
 10
81.91054
 20
169.31532
 30
0.0
 11
82.41054
 21
120.31533
 31
0.0
  0
LINE
  5
80
330
1F
100
AcDbEntity
  8
SLD-0
  6
Continuous
 62
   179
100
AcDbLine
 10
84.01057
 20
167.81532
 30
0.0
 11
84.01057
 21
121.81532
 31
0.0
  0
LINE
  5
81
330
1F
100
AcDbEntity
  8
SLD-0
  6
CENTER
 62
   179
100
AcDbLine
 10
63.91056
 20
169.31532
 30
0.0
 11
63.41056
 21
120.31533
 31
0.0
  0
LINE
  5
82
330
1F
100
AcDbEntity
  8
SLD-0
  6
Continuous
 62
   179
100
AcDbLine
 10
65.01056
 20
167.81532
 30
0.0
 11
65.01056
 21
121.81532
 31
0.0
  0
LINE
  5
83
330
1F
100
AcDbEntity
  8
SLD-0
  6
Continuous
 62
   179
100
AcDbLine
 10
61.81055
 20
167.81532
 30
0.0
 11
61.81055
 21
121.81532
 31
0.0
  0
LINE
  5
84
330
1F
100
AcDbEntity
  8
SLD-0
  6
HIDDEN
 62
   179
100
AcDbLine
 10
61.31055
 20
167.81532
 30
0.0
 11
61.31055
 21
121.81532
 31
0.0
  0
LINE
  5
85
330
1F
100
AcDbEntity
  8
SLD-0
  6
HIDDEN
 62
   179
100
AcDbLine
 10
65.51056
 20
167.81532
 30
0.0
 11
65.51056
 21
121.81532
 31
0.0
  0
LINE
  5
86
330
1F
100
AcDbEntity
  8
SLD-0
  6
HIDDEN
 62
   179
100
AcDbLine
 10
80.31055
 20
167.81532
 30
0.0
 11
80.31055
 21
121.81532
 31
0.0
  0
LINE
  5
87
330
1F
100
AcDbEntity
  8
SLD-0
  6
HIDDEN
 62
   179
100
AcDbLine
 10
84.51057
 20
167.81532
 30
0.0
 11
84.51057
 21
121.81532
 31
0.0
  0
LINE
  5
88
330
1F
100
AcDbEntity
  8
SLD-0
  6
Continuous
 62
   179
100
AcDbLine
 10
76.91055
 20
169.81532
 30
0.0
 11
76.91055
 21
167.81532
 31
0.0
  0
LINE
  5
89
330
1F
100
AcDbEntity
  8
SLD-0
  6
Continuous
 62
   179
100
AcDbLine
 10
68.91055
 20
169.81532
 30
0.0
 11
68.91055
 21
167.81532
 31
0.0
  0
LINE
  5
8A
330
1F
100
AcDbEntity
  8
SLD-0
  6
Continuous
 62
   179
100
AcDbLine
 10
60.41055
 20
169.81532
 30
0.0
 11
60.41055
 21
167.81532
 31
0.0
  0
LINE
  5
8B
330
1F
100
AcDbEntity
  8
SLD-0
  6
Continuous
 62
   179
100
AcDbLine
 10
55.41055
 20
169.81532
 30
0.0
 11
55.41055
 21
167.81532
 31
0.0
  0
LINE
  5
8C
330
1F
100
AcDbEntity
  8
SLD-0
  6
Continuous
 62
   179
100
AcDbLine
 10
52.91055
 20
167.51532
 30
0.0
 11
52.91055
 21
122.11533
 31
0.0
  0
LINE
  5
8D
330
1F
100
AcDbEntity
  8
SLD-0
  6
Continuous
 62
   179
100
AcDbLine
 10
52.91055
 20
122.11533
 30
0.0
 11
53.21054
 21
121.81534
 31
0.0
  0
LINE
  5
8E
330
1F
100
AcDbEntity
  8
SLD-0
  6
Continuous
 62
   179
100
AcDbLine
 10
52.91055
 20
167.51532
 30
0.0
 11
53.21056
 21
167.81532
 31
0.0
  0
LINE
  5
8F
330
1F
100
AcDbEntity
  8
SLD-0
  6
Continuous
 62
   179
100
AcDbLine
 10
92.61057
 20
167.81532
 30
0.0
 11
92.91056
 21
167.51533
 31
0.0
  0
LINE
  5
90
330
1F
100
AcDbEntity
  8
SLD-0
  6
Continuous
 62
   179
100
AcDbLine
 10
92.61054
 20
121.81534
 30
0.0
 11
92.91054
 21
122.11533
 31
0.0
  0
LINE
  5
91
330
1F
100
AcDbEntity
  8
SLD-0
  6
Continuous
 62
   179
100
AcDbLine
 10
52.91054
 20
177.31534
 30
0.0
 11
53.41054
 21
177.81534
 31
0.0
  0
LINE
  5
92
330
1F
100
AcDbEntity
  8
SLD-0
  6
Continuous
 62
   179
100
AcDbLine
 10
92.41055
 20
177.81532
 30
0.0
 11
92.91054
 21
177.31534
 31
0.0
  0
LINE
  5
93
330
1F
100
AcDbEntity
  8
SLD-0
  6
Continuous
 62
   179
100
AcDbLine
 10
92.41056
 20
169.81531
 30
0.0
 11
92.91055
 21
170.31532
 31
0.0
  0
LINE
  5
94
330
1F
100
AcDbEntity
  8
SLD-0
  6
Continuous
 62
   179
100
AcDbLine
 10
53.41055
 20
169.81532
 30
0.0
 11
52.91055
 21
170.31532
 31
0.0
  0
LINE
  5
95
330
1F
100
AcDbEntity
  8
SLD-0
  6
Continuous
 62
   179
100
AcDbLine
 10
54.91055
 20
232.31532
 30
0.0
 11
90.91055
 21
232.31532
 31
0.0
  0
LINE
  5
96
330
1F
100
AcDbEntity
  8
SLD-0
  6
Continuous
 62
   179
100
AcDbLine
 10
52.91055
 20
230.31532
 30
0.0
 11
52.91055
 21
210.31532
 31
0.0
  0
LINE
  5
97
330
1F
100
AcDbEntity
  8
SLD-0
  6
Continuous
 62
   179
100
AcDbLine
 10
92.91055
 20
230.31532
 30
0.0
 11
92.91055
 21
210.31532
 31
0.0
  0
LINE
  5
98
330
1F
100
AcDbEntity
  8
SLD-0
  6
CENTER
 62
   179
100
AcDbLine
 10
51.41055
 20
220.31532
 30
0.0
 11
94.410553
 21
220.31532
 31
0.0
  0
LINE
  5
99
330
1F
100
AcDbEntity
  8
SLD-0
  6
CENTER
 62
   179
100
AcDbLine
 10
72.91055
 20
233.81532
 30
0.0
 11
72.91055
 21
206.81532
 31
0.0
  0
LINE
  5
9A
330
1F
100
AcDbEntity
  8
SLD-0
  6
CENTER
 62
   179
100
AcDbLine
 10
53.41055
 20
228.31532
 30
0.0
 11
60.41055
 21
228.31532
 31
0.0
  0
LINE
  5
9B
330
1F
100
AcDbEntity
  8
SLD-0
  6
CENTER
 62
   179
100
AcDbLine
 10
56.91055
 20
231.81532
 30
0.0
 11
56.91055
 21
224.81532
 31
0.0
  0
LINE
  5
9C
330
1F
100
AcDbEntity
  8
SLD-0
  6
CENTER
 62
   179
100
AcDbLine
 10
53.41055
 20
212.31532
 30
0.0
 11
60.41055
 21
212.31532
 31
0.0
  0
LINE
  5
9D
330
1F
100
AcDbEntity
  8
SLD-0
  6
CENTER
 62
   179
100
AcDbLine
 10
56.91055
 20
215.81532
 30
0.0
 11
56.91055
 21
208.81532
 31
0.0
  0
LINE
  5
9E
330
1F
100
AcDbEntity
  8
SLD-0
  6
CENTER
 62
   179
100
AcDbLine
 10
85.41055
 20
212.31532
 30
0.0
 11
92.41055
 21
212.31532
 31
0.0
  0
LINE
  5
9F
330
1F
100
AcDbEntity
  8
SLD-0
  6
CENTER
 62
   179
100
AcDbLine
 10
88.91055
 20
215.81532
 30
0.0
 11
88.91055
 21
208.81532
 31
0.0
  0
LINE
  5
A0
330
1F
100
AcDbEntity
  8
SLD-0
  6
CENTER
 62
   179
100
AcDbLine
 10
85.41055
 20
228.31532
 30
0.0
 11
92.41055
 21
228.31532
 31
0.0
  0
LINE
  5
A1
330
1F
100
AcDbEntity
  8
SLD-0
  6
CENTER
 62
   179
100
AcDbLine
 10
88.91055
 20
231.81532
 30
0.0
 11
88.91055
 21
224.81532
 31
0.0
  0
LINE
  5
A2
330
1F
100
AcDbEntity
  8
SLD-0
  6
Continuous
 62
   179
100
AcDbLine
 10
90.91055
 20
232.31532
 30
0.0
 11
92.91055
 21
230.31532
 31
0.0
  0
LINE
  5
A3
330
1F
100
AcDbEntity
  8
SLD-0
  6
Continuous
 62
   179
100
AcDbLine
 10
92.91055
 20
210.31532
 30
0.0
 11
90.91055
 21
208.31533
 31
0.0
  0
LINE
  5
A4
330
1F
100
AcDbEntity
  8
SLD-0
  6
Continuous
 62
   179
100
AcDbLine
 10
52.91055
 20
210.31534
 30
0.0
 11
54.91055
 21
208.31534
 31
0.0
  0
LINE
  5
A5
330
1F
100
AcDbEntity
  8
SLD-0
  6
Continuous
 62
   179
100
AcDbLine
 10
54.91055
 20
232.31532
 30
0.0
 11
52.91055
 21
230.31532
 31
0.0
  0
LINE
  5
A6
330
1F
100
AcDbEntity
  8
SLD-0
  6
CENTER
 62
   179
100
AcDbLine
 10
57.91055
 20
216.31532
 30
0.0
 11
57.91055
 21
224.31532
 31
0.0
  0
LINE
  5
A7
330
1F
100
AcDbEntity
  8
SLD-0
  6
Continuous
 62
   179
100
AcDbLine
 10
54.91055
 20
208.31532
 30
0.0
 11
90.91055
 21
208.31533
 31
0.0
  0
LINE
  5
A8
330
1F
100
AcDbEntity
  8
SLD-0
  6
CENTER
 62
   179
100
AcDbLine
 10
145.410553
 20
120.31532
 30
0.0
 11
145.410553
 21
189.31532
 31
0.0
  0
LINE
  5
A9
330
1F
100
AcDbEntity
  8
SLD-0
  6
Continuous
 62
   179
100
AcDbLine
 10
133.910553
 20
169.81532
 30
0.0
 11
156.910553
 21
169.81532
 31
0.0
  0
LINE
  5
AA
330
1F
100
AcDbEntity
  8
SLD-0
  6
Continuous
 62
   179
100
AcDbLine
 10
133.910553
 20
177.81532
 30
0.0
 11
156.910553
 21
177.81532
 31
0.0
  0
LINE
  5
AB
330
1F
100
AcDbEntity
  8
SLD-0
  6
Continuous
 62
   179
100
AcDbLine
 10
157.410553
 20
170.31532
 30
0.0
 11
157.410553
 21
177.31532
 31
0.0
  0
LINE
  5
AC
330
1F
100
AcDbEntity
  8
SLD-0
  6
Continuous
 62
   179
100
AcDbLine
 10
133.410553
 20
170.31532
 30
0.0
 11
133.410553
 21
177.31532
 31
0.0
  0
LINE
  5
AD
330
1F
100
AcDbEntity
  8
SLD-0
  6
Continuous
 62
   179
100
AcDbLine
 10
133.910553
 20
169.81532
 30
0.0
 11
133.410553
 21
170.31532
 31
0.0
  0
LINE
  5
AE
330
1F
100
AcDbEntity
  8
SLD-0
  6
Continuous
 62
   179
100
AcDbLine
 10
133.410553
 20
177.31532
 30
0.0
 11
133.910553
 21
177.81532
 31
0.0
  0
LINE
  5
AF
330
1F
100
AcDbEntity
  8
SLD-0
  6
Continuous
 62
   179
100
AcDbLine
 10
156.910553
 20
169.81532
 30
0.0
 11
157.410553
 21
170.31532
 31
0.0
  0
LINE
  5
B0
330
1F
100
AcDbEntity
  8
SLD-0
  6
Continuous
 62
   179
100
AcDbLine
 10
157.410542
 20
177.31533
 30
0.0
 11
156.910541
 21
177.81533
 31
0.0
  0
LINE
  5
B1
330
1F
100
AcDbEntity
  8
SLD-0
  6
HIDDEN
 62
   179
100
AcDbLine
 10
153.310555
 20
121.81532
 30
0.0
 11
153.310555
 21
167.81532
 31
0.0
  0
LINE
  5
B2
330
1F
100
AcDbEntity
  8
SLD-0
  6
HIDDEN
 62
   179
100
AcDbLine
 10
156.770699
 20
121.81532
 30
0.0
 11
156.770699
 21
167.81532
 31
0.0
  0
LINE
  5
B3
330
1F
100
AcDbEntity
  8
SLD-0
  6
CENTER
 62
   179
100
AcDbLine
 10
155.410553
 20
120.31532
 30
0.0
 11
155.410553
 21
169.31532
 31
0.0
  0
LINE
  5
B4
330
1F
100
AcDbEntity
  8
SLD-0
  6
CENTER
 62
   179
100
AcDbLine
 10
135.410553
 20
120.31532
 30
0.0
 11
135.410553
 21
169.31532
 31
0.0
  0
LINE
  5
B5
330
1F
100
AcDbEntity
  8
SLD-0
  6
HIDDEN
 62
   179
100
AcDbLine
 10
134.050404
 20
121.81532
 30
0.0
 11
134.050404
 21
167.81532
 31
0.0
  0
LINE
  5
B6
330
1F
100
AcDbEntity
  8
SLD-0
  6
HIDDEN
 62
   179
100
AcDbLine
 10
137.510555
 20
121.81532
 30
0.0
 11
137.510555
 21
167.81532
 31
0.0
  0
LINE
  5
B7
330
1F
100
AcDbEntity
  8
SLD-0
  6
HIDDEN
 62
   179
100
AcDbLine
 10
157.610555
 20
136.31533
 30
0.0
 11
157.910551
 21
136.01533
 31
0.0
  0
LINE
  5
B8
330
1F
100
AcDbEntity
  8
SLD-0
  6
CENTER
 62
   179
100
AcDbLine
 10
131.410553
 20
138.81532
 30
0.0
 11
159.410553
 21
138.81532
 31
0.0
  0
LINE
  5
B9
330
1F
100
AcDbEntity
  8
SLD-0
  6
HIDDEN
 62
   179
100
AcDbLine
 10
133.210552
 20
136.66534
 30
0.0
 11
157.61055
 21
136.66534
 31
0.0
  0
LINE
  5
BA
330
1F
100
AcDbEntity
  8
SLD-0
  6
HIDDEN
 62
   179
100
AcDbLine
 10
133.210552
 20
136.31532
 30
0.0
 11
157.61055
 21
136.31532
 31
0.0
  0
LINE
  5
BB
330
1F
100
AcDbEntity
  8
SLD-0
  6
HIDDEN
 62
   179
100
AcDbLine
 10
133.210552
 20
140.96532
 30
0.0
 11
157.61055
 21
140.96532
 31
0.0
  0
LINE
  5
BC
330
1F
100
AcDbEntity
  8
SLD-0
  6
HIDDEN
 62
   179
100
AcDbLine
 10
133.210552
 20
141.31532
 30
0.0
 11
157.61055
 21
141.31532
 31
0.0
  0
LINE
  5
BD
330
1F
100
AcDbEntity
  8
SLD-0
  6
HIDDEN
 62
   179
100
AcDbLine
 10
133.210552
 20
141.31532
 30
0.0
 11
133.210552
 21
136.31532
 31
0.0
  0
LINE
  5
BE
330
1F
100
AcDbEntity
  8
SLD-0
  6
HIDDEN
 62
   179
100
AcDbLine
 10
133.210539
 20
141.31533
 30
0.0
 11
132.910545
 21
141.61532
 31
0.0
  0
LINE
  5
BF
330
1F
100
AcDbEntity
  8
SLD-0
  6
HIDDEN
 62
   179
100
AcDbLine
 10
133.210552
 20
136.31532
 30
0.0
 11
132.910559
 21
136.01532
 31
0.0
  0
LINE
  5
C0
330
1F
100
AcDbEntity
  8
SLD-0
  6
HIDDEN
 62
   179
100
AcDbLine
 10
157.61055
 20
141.31532
 30
0.0
 11
157.61055
 21
136.31532
 31
0.0
  0
LINE
  5
C1
330
1F
100
AcDbEntity
  8
SLD-0
  6
HIDDEN
 62
   179
100
AcDbLine
 10
157.61055
 20
141.31532
 30
0.0
 11
157.910552
 21
141.61534
 31
0.0
  0
LINE
  5
C2
330
1F
100
AcDbEntity
  8
SLD-0
  6
CENTER
 62
   179
100
AcDbLine
 10
84.91055
 20
138.81532
 30
0.0
 11
92.91055
 21
138.81532
 31
0.0
  0
LINE
  5
C3
330
1F
100
AcDbEntity
  8
SLD-0
  6
CENTER
 62
   179
100
AcDbLine
 10
88.91055
 20
142.81532
 30
0.0
 11
88.91055
 21
134.81532
 31
0.0
  0
LINE
  5
C4
330
1F
100
AcDbEntity
  8
SLD-0
  6
CENTER
 62
   179
100
AcDbLine
 10
86.51057
 20
157.81532
 30
0.0
 11
94.410553
 21
157.81532
 31
0.0
  0
LINE
  5
C5
330
1F
100
AcDbEntity
  8
SLD-0
  6
HIDDEN
 62
   179
100
AcDbLine
 10
87.91055
 20
160.31532
 30
0.0
 11
92.61057
 21
160.31532
 31
0.0
  0
LINE
  5
C6
330
1F
100
AcDbEntity
  8
SLD-0
  6
HIDDEN
 62
   179
100
AcDbLine
 10
87.91055
 20
155.31532
 30
0.0
 11
92.61057
 21
155.31532
 31
0.0
  0
LINE
  5
C7
330
1F
100
AcDbEntity
  8
SLD-0
  6
HIDDEN
 62
   179
100
AcDbLine
 10
86.51057
 20
155.51532
 30
0.0
 11
92.61057
 21
155.51532
 31
0.0
  0
LINE
  5
C8
330
1F
100
AcDbEntity
  8
SLD-0
  6
HIDDEN
 62
   179
100
AcDbLine
 10
86.51057
 20
160.11533
 30
0.0
 11
92.61057
 21
160.11533
 31
0.0
  0
LINE
  5
C9
330
1F
100
AcDbEntity
  8
SLD-0
  6
HIDDEN
 62
   179
100
AcDbLine
 10
87.91055
 20
155.31532
 30
0.0
 11
87.91055
 21
160.31532
 31
0.0
  0
LINE
  5
CA
330
1F
100
AcDbEntity
  8
SLD-0
  6
HIDDEN
 62
   179
100
AcDbLine
 10
92.61056
 20
155.31532
 30
0.0
 11
92.91056
 21
155.01533
 31
0.0
  0
LINE
  5
CB
330
1F
100
AcDbEntity
  8
SLD-0
  6
HIDDEN
 62
   179
100
AcDbLine
 10
92.61055
 20
160.31532
 30
0.0
 11
92.91057
 21
160.61533
 31
0.0
  0
LINE
  5
CC
330
1F
100
AcDbEntity
  8
SLD-0
  6
HIDDEN
 62
   179
100
AcDbLine
 10
92.61053
 20
155.31532
 30
0.0
 11
92.61053
 21
160.31532
 31
0.0
  0
LINE
  5
CD
330
1F
100
AcDbEntity
  8
SLD-0
  6
CENTER
 62
   179
100
AcDbLine
 10
86.51057
 20
131.81532
 30
0.0
 11
94.410553
 21
131.81532
 31
0.0
  0
LINE
  5
CE
330
1F
100
AcDbEntity
  8
SLD-0
  6
HIDDEN
 62
   179
100
AcDbLine
 10
87.91055
 20
134.31532
 30
0.0
 11
92.61057
 21
134.31532
 31
0.0
  0
LINE
  5
CF
330
1F
100
AcDbEntity
  8
SLD-0
  6
HIDDEN
 62
   179
100
AcDbLine
 10
87.91055
 20
129.31532
 30
0.0
 11
92.61057
 21
129.31532
 31
0.0
  0
LINE
  5
D0
330
1F
100
AcDbEntity
  8
SLD-0
  6
HIDDEN
 62
   179
100
AcDbLine
 10
86.51057
 20
129.51533
 30
0.0
 11
92.61057
 21
129.51533
 31
0.0
  0
LINE
  5
D1
330
1F
100
AcDbEntity
  8
SLD-0
  6
HIDDEN
 62
   179
100
AcDbLine
 10
86.51057
 20
134.11533
 30
0.0
 11
92.61057
 21
134.11533
 31
0.0
  0
LINE
  5
D2
330
1F
100
AcDbEntity
  8
SLD-0
  6
HIDDEN
 62
   179
100
AcDbLine
 10
87.91055
 20
129.31532
 30
0.0
 11
87.91055
 21
134.31532
 31
0.0
  0
LINE
  5
D3
330
1F
100
AcDbEntity
  8
SLD-0
  6
HIDDEN
 62
   179
100
AcDbLine
 10
92.61056
 20
129.31532
 30
0.0
 11
92.91054
 21
129.01534
 31
0.0
  0
LINE
  5
D4
330
1F
100
AcDbEntity
  8
SLD-0
  6
HIDDEN
 62
   179
100
AcDbLine
 10
92.61054
 20
134.31534
 30
0.0
 11
92.91055
 21
134.61535
 31
0.0
  0
LINE
  5
D5
330
1F
100
AcDbEntity
  8
SLD-0
  6
HIDDEN
 62
   179
100
AcDbLine
 10
92.61053
 20
129.31532
 30
0.0
 11
92.61053
 21
134.31532
 31
0.0
  0
LINE
  5
D6
330
1F
100
AcDbEntity
  8
SLD-0
  6
Continuous
 62
   179
100
AcDbLine
 10
141.910553
 20
167.81532
 30
0.0
 11
141.910553
 21
169.81532
 31
0.0
  0
LINE
  5
D7
330
1F
100
AcDbEntity
  8
SLD-0
  6
Continuous
 62
   179
100
AcDbLine
 10
148.910553
 20
167.81532
 30
0.0
 11
148.910553
 21
169.81532
 31
0.0
  0
LINE
  5
D8
330
1F
100
AcDbEntity
  8
SLD-0
  6
Continuous
 62
   179
100
AcDbLine
 10
72.04455
 20
218.81533
 30
0.0
 11
71.17852
 21
220.31534
 31
0.0
  0
LINE
  5
D9
330
1F
100
AcDbEntity
  8
SLD-0
  6
Continuous
 62
   179
100
AcDbLine
 10
74.64262
 20
220.31533
 30
0.0
 11
73.77659
 21
221.81534
 31
0.0
  0
LINE
  5
DA
330
1F
100
AcDbEntity
  8
SLD-0
  6
Continuous
 62
   179
100
AcDbLine
 10
71.17849
 20
220.3153
 30
0.0
 11
72.04452
 21
221.81531
 31
0.0
  0
LINE
  5
DB
330
1F
100
AcDbEntity
  8
SLD-0
  6
Continuous
 62
   179
100
AcDbLine
 10
73.77656
 20
218.81531
 30
0.0
 11
74.64259
 21
220.31531
 31
0.0
  0
LINE
  5
DC
330
1F
100
AcDbEntity
  8
SLD-0
  6
Continuous
 62
   179
100
AcDbLine
 10
72.04452
 20
221.81531
 30
0.0
 11
73.77658
 21
221.81532
 31
0.0
  0
LINE
  5
DD
330
1F
100
AcDbEntity
  8
SLD-0
  6
Continuous
 62
   179
100
AcDbLine
 10
72.04453
 20
218.81532
 30
0.0
 11
73.77658
 21
218.81532
 31
0.0
  0
LINE
  5
DE
330
1F
100
AcDbEntity
  8
SLD-0
  6
Continuous
 62
   179
100
AcDbLine
 10
56.46719
 20
220.31529
 30
0.0
 11
57.18888
 21
221.5653
 31
0.0
  0
LINE
  5
DF
330
1F
100
AcDbEntity
  8
SLD-0
  6
Continuous
 62
   179
100
AcDbLine
 10
58.63224
 20
219.06529
 30
0.0
 11
59.35393
 21
220.3153
 31
0.0
  0
LINE
  5
E0
330
1F
100
AcDbEntity
  8
SLD-0
  6
Continuous
 62
   179
100
AcDbLine
 10
59.35395
 20
220.31531
 30
0.0
 11
58.63226
 21
221.56531
 31
0.0
  0
LINE
  5
E1
330
1F
100
AcDbEntity
  8
SLD-0
  6
Continuous
 62
   179
100
AcDbLine
 10
57.18889
 20
219.0653
 30
0.0
 11
56.4672
 21
220.3153
 31
0.0
  0
LINE
  5
E2
330
1F
100
AcDbEntity
  8
SLD-0
  6
Continuous
 62
   179
100
AcDbLine
 10
57.18887
 20
221.56532
 30
0.0
 11
58.63225
 21
221.56532
 31
0.0
  0
LINE
  5
E3
330
1F
100
AcDbEntity
  8
SLD-0
  6
Continuous
 62
   179
100
AcDbLine
 10
57.18887
 20
219.06532
 30
0.0
 11
58.63225
 21
219.06532
 31
0.0
  0
LINE
  5
E4
330
1F
100
AcDbEntity
  8
SLD-0
  6
PHANTOM
 62
   179
100
AcDbLine
 10
141.910553
 20
177.81532
 30
0.0
 11
141.910553
 21
179.81532
 31
0.0
  0
LINE
  5
E5
330
1F
100
AcDbEntity
  8
SLD-0
  6
PHANTOM
 62
   179
100
AcDbLine
 10
148.910553
 20
177.81532
 30
0.0
 11
148.910553
 21
179.81532
 31
0.0
  0
LINE
  5
E6
330
1F
100
AcDbEntity
  8
SLD-0
  6
Continuous
 62
   179
100
AcDbLine
 10
68.14292
 20
62.385967
 30
0.0
 11
65.20596
 21
61.599012
 31
0.0
  0
LINE
  5
E7
330
1F
100
AcDbEntity
  8
SLD-0
  6
Continuous
 62
   179
100
AcDbLine
 10
70.6605500643
 20
60.4541130838
 30
0.0
 11
70.6605500643
 21
57.5592310838
 31
0.0
  0
LINE
  5
E8
330
1F
100
AcDbEntity
  8
SLD-0
  6
Continuous
 62
   179
100
AcDbLine
 10
75.16055
 20
60.454113
 30
0.0
 11
75.16055
 21
57.559231
 31
0.0
  0
LINE
  5
E9
330
1F
100
AcDbEntity
  8
SLD-0
  6
Continuous
 62
   179
100
AcDbLine
 10
77.6781903075
 20
62.3859645992
 30
0.0
 11
80.6151703075
 21
61.5990025992
 31
0.0
  0
LINE
  5
EA
330
1F
100
AcDbEntity
  8
SLD-0
  6
CENTER
 62
   179
100
AcDbLine
 10
51.41055
 20
67.815327
 30
0.0
 11
94.410553
 21
67.815327
 31
0.0
  0
LINE
  5
EB
330
1F
100
AcDbEntity
  8
SLD-0
  6
Continuous
 62
   179
100
AcDbLine
 10
54.910551506
 20
80.3153217198
 30
0.0
 11
61.810551506
 21
80.3153217198
 31
0.0
  0
LINE
  5
EC
330
1F
100
AcDbEntity
  8
SLD-0
  6
Continuous
 62
   179
100
AcDbLine
 10
54.910551506
 20
55.3153257198
 30
0.0
 11
61.810551506
 21
55.3153257198
 31
0.0
  0
LINE
  5
ED
330
1F
100
AcDbEntity
  8
SLD-0
  6
Continuous
 62
   179
100
AcDbLine
 10
52.910551506
 20
78.3153217198
 30
0.0
 11
52.910551506
 21
57.3153257198
 31
0.0
  0
LINE
  5
EE
330
1F
100
AcDbEntity
  8
SLD-0
  6
Continuous
 62
   179
100
AcDbLine
 10
92.91055
 20
78.315323
 30
0.0
 11
92.91055
 21
57.315327
 31
0.0
  0
LINE
  5
EF
330
1F
100
AcDbEntity
  8
SLD-0
  6
CENTER
 62
   179
100
AcDbLine
 10
72.91055
 20
81.815323
 30
0.0
 11
72.91055
 21
53.815327
 31
0.0
  0
LINE
  5
F0
330
1F
100
AcDbEntity
  8
SLD-0
  6
CENTER
 62
   179
100
AcDbLine
 10
59.81055
 20
77.815323
 30
0.0
 11
67.01057
 21
77.815323
 31
0.0
  0
LINE
  5
F1
330
1F
100
AcDbEntity
  8
SLD-0
  6
CENTER
 62
   179
100
AcDbLine
 10
63.41055
 20
81.815335
 30
0.0
 11
63.91056
 21
74.215326
 31
0.0
  0
LINE
  5
F2
330
1F
100
AcDbEntity
  8
SLD-0
  6
CENTER
 62
   179
100
AcDbLine
 10
59.81055
 20
57.815327
 30
0.0
 11
67.01057
 21
57.815327
 31
0.0
  0
LINE
  5
F3
330
1F
100
AcDbEntity
  8
SLD-0
  6
CENTER
 62
   179
100
AcDbLine
 10
63.41055
 20
61.415325
 30
0.0
 11
63.41055
 21
53.815327
 31
0.0
  0
LINE
  5
F4
330
1F
100
AcDbEntity
  8
SLD-0
  6
CENTER
 62
   179
100
AcDbLine
 10
78.81055
 20
57.815327
 30
0.0
 11
86.01057
 21
57.815327
 31
0.0
  0
LINE
  5
F5
330
1F
100
AcDbEntity
  8
SLD-0
  6
CENTER
 62
   179
100
AcDbLine
 10
82.41055
 20
61.415325
 30
0.0
 11
82.41055
 21
53.815327
 31
0.0
  0
LINE
  5
F6
330
1F
100
AcDbEntity
  8
SLD-0
  6
CENTER
 62
   179
100
AcDbLine
 10
78.81055
 20
77.815323
 30
0.0
 11
86.01057
 21
77.815323
 31
0.0
  0
LINE
  5
F7
330
1F
100
AcDbEntity
  8
SLD-0
  6
CENTER
 62
   179
100
AcDbLine
 10
82.41055
 20
81.815323
 30
0.0
 11
82.41055
 21
74.215328
 31
0.0
  0
LINE
  5
F8
330
1F
100
AcDbEntity
  8
SLD-0
  6
Continuous
 62
   179
100
AcDbLine
 10
80.810551506
 20
80.3153217198
 30
0.0
 11
80.810551506
 21
79.1754747198
 31
0.0
  0
LINE
  5
F9
330
1F
100
AcDbEntity
  8
SLD-0
  6
Continuous
 62
   179
100
AcDbLine
 10
84.01057
 20
80.315323
 30
0.0
 11
84.01057
 21
79.175476
 31
0.0
  0
LINE
  5
FA
330
1F
100
AcDbEntity
  8
SLD-0
  6
Continuous
 62
   179
100
AcDbLine
 10
84.01057
 20
80.315323
 30
0.0
 11
90.91055
 21
80.315323
 31
0.0
  0
LINE
  5
FB
330
1F
100
AcDbEntity
  8
SLD-0
  6
Continuous
 62
   179
100
AcDbLine
 10
61.810551506
 20
80.3153217198
 30
0.0
 11
61.810551506
 21
79.1754747198
 31
0.0
  0
LINE
  5
FC
330
1F
100
AcDbEntity
  8
SLD-0
  6
Continuous
 62
   179
100
AcDbLine
 10
65.010561506
 20
80.3153217198
 30
0.0
 11
65.010561506
 21
79.1754747198
 31
0.0
  0
LINE
  5
FD
330
1F
100
AcDbEntity
  8
SLD-0
  6
Continuous
 62
   179
100
AcDbLine
 10
65.010561506
 20
56.5337365992
 30
0.0
 11
65.010561506
 21
55.3153305992
 31
0.0
  0
LINE
  5
FE
330
1F
100
AcDbEntity
  8
SLD-0
  6
Continuous
 62
   179
100
AcDbLine
 10
61.810551506
 20
56.5337317198
 30
0.0
 11
61.810551506
 21
55.3153257198
 31
0.0
  0
LINE
  5
FF
330
1F
100
AcDbEntity
  8
SLD-0
  6
Continuous
 62
   179
100
AcDbLine
 10
84.01057
 20
56.533733
 30
0.0
 11
84.01057
 21
55.315327
 31
0.0
  0
LINE
  5
100
330
1F
100
AcDbEntity
  8
SLD-0
  6
Continuous
 62
   179
100
AcDbLine
 10
80.810551506
 20
56.5337365992
 30
0.0
 11
80.810551506
 21
55.3153305992
 31
0.0
  0
LINE
  5
101
330
1F
100
AcDbEntity
  8
SLD-0
  6
Continuous
 62
   179
100
AcDbLine
 10
65.010561506
 20
55.3153305992
 30
0.0
 11
80.810551506
 21
55.3153305992
 31
0.0
  0
LINE
  5
102
330
1F
100
AcDbEntity
  8
SLD-0
  6
Continuous
 62
   179
100
AcDbLine
 10
84.01057
 20
55.315327
 30
0.0
 11
90.91055
 21
55.315327
 31
0.0
  0
LINE
  5
103
330
1F
100
AcDbEntity
  8
SLD-0
  6
Continuous
 62
   179
100
AcDbLine
 10
65.010561506
 20
80.3153217198
 30
0.0
 11
80.810551506
 21
80.3153217198
 31
0.0
  0
LINE
  5
104
330
1F
100
AcDbEntity
  8
SLD-0
  6
Continuous
 62
   179
100
AcDbLine
 10
80.91055
 20
79.815323
 30
0.0
 11
83.91055
 21
79.815323
 31
0.0
  0
LINE
  5
105
330
1F
100
AcDbEntity
  8
SLD-0
  6
Continuous
 62
   179
100
AcDbLine
 10
80.91055
 20
80.315323
 30
0.0
 11
83.91055
 21
80.315323
 31
0.0
  0
LINE
  5
106
330
1F
100
AcDbEntity
  8
SLD-0
  6
Continuous
 62
   179
100
AcDbLine
 10
80.91055
 20
80.315323
 30
0.0
 11
80.91055
 21
79.138206
 31
0.0
  0
LINE
  5
107
330
1F
100
AcDbEntity
  8
SLD-0
  6
Continuous
 62
   179
100
AcDbLine
 10
83.91055
 20
80.315323
 30
0.0
 11
83.91055
 21
79.138206
 31
0.0
  0
LINE
  5
108
330
1F
100
AcDbEntity
  8
SLD-0
  6
Continuous
 62
   179
100
AcDbLine
 10
64.91055
 20
80.315323
 30
0.0
 11
61.91055
 21
80.315323
 31
0.0
  0
LINE
  5
109
330
1F
100
AcDbEntity
  8
SLD-0
  6
Continuous
 62
   179
100
AcDbLine
 10
64.91055
 20
80.315323
 30
0.0
 11
64.91055
 21
79.138206
 31
0.0
  0
LINE
  5
10A
330
1F
100
AcDbEntity
  8
SLD-0
  6
Continuous
 62
   179
100
AcDbLine
 10
64.91055
 20
79.815323
 30
0.0
 11
61.91055
 21
79.815323
 31
0.0
  0
LINE
  5
10B
330
1F
100
AcDbEntity
  8
SLD-0
  6
Continuous
 62
   179
100
AcDbLine
 10
61.91055
 20
80.315323
 30
0.0
 11
61.91055
 21
79.138206
 31
0.0
  0
LINE
  5
10C
330
1F
100
AcDbEntity
  8
SLD-0
  6
CENTER
 62
   179
100
AcDbLine
 10
57.91055
 20
72.565327
 30
0.0
 11
57.91055
 21
63.065327
 31
0.0
  0
LINE
  5
10D
330
1F
100
AcDbEntity
  8
SLD-0
  6
Continuous
 62
   179
100
AcDbLine
 10
80.81055
 20
208.31532
 30
0.0
 11
80.81055
 21
207.81532
 31
0.0
  0
LINE
  5
10E
330
1F
100
AcDbEntity
  8
SLD-0
  6
Continuous
 62
   179
100
AcDbLine
 10
90.91055
 20
232.81532
 30
0.0
 11
84.01057
 21
232.81532
 31
0.0
  0
LINE
  5
10F
330
1F
100
AcDbEntity
  8
SLD-0
  6
Continuous
 62
   179
100
AcDbLine
 10
90.91055
 20
207.81532
 30
0.0
 11
84.01057
 21
207.81532
 31
0.0
  0
LINE
  5
110
330
1F
100
AcDbEntity
  8
SLD-0
  6
Continuous
 62
   179
100
AcDbLine
 10
92.91055
 20
209.81532
 30
0.0
 11
92.91055
 21
230.81532
 31
0.0
  0
LINE
  5
111
330
1F
100
AcDbEntity
  8
SLD-0
  6
Continuous
 62
   179
100
AcDbLine
 10
80.81055
 20
232.31532
 30
0.0
 11
80.81055
 21
232.81532
 31
0.0
  0
LINE
  5
112
330
1F
100
AcDbEntity
  8
SLD-0
  6
Continuous
 62
   179
100
AcDbLine
 10
84.01057
 20
232.31532
 30
0.0
 11
84.01057
 21
232.81532
 31
0.0
  0
LINE
  5
113
330
1F
100
AcDbEntity
  8
SLD-0
  6
Continuous
 62
   179
100
AcDbLine
 10
61.81055
 20
232.31532
 30
0.0
 11
61.81055
 21
232.81532
 31
0.0
  0
LINE
  5
114
330
1F
100
AcDbEntity
  8
SLD-0
  6
Continuous
 62
   179
100
AcDbLine
 10
65.01056
 20
232.31532
 30
0.0
 11
65.01056
 21
232.81532
 31
0.0
  0
LINE
  5
115
330
1F
100
AcDbEntity
  8
SLD-0
  6
Continuous
 62
   179
100
AcDbLine
 10
80.81055
 20
232.81532
 30
0.0
 11
65.01056
 21
232.81532
 31
0.0
  0
LINE
  5
116
330
1F
100
AcDbEntity
  8
SLD-0
  6
Continuous
 62
   179
100
AcDbLine
 10
61.81055
 20
232.81532
 30
0.0
 11
54.91055
 21
232.81532
 31
0.0
  0
LINE
  5
117
330
1F
100
AcDbEntity
  8
SLD-0
  6
Continuous
 62
   179
100
AcDbLine
 10
84.01057
 20
208.31532
 30
0.0
 11
84.01057
 21
207.81532
 31
0.0
  0
LINE
  5
118
330
1F
100
AcDbEntity
  8
SLD-0
  6
Continuous
 62
   179
100
AcDbLine
 10
61.81055
 20
208.31532
 30
0.0
 11
61.81055
 21
207.81532
 31
0.0
  0
LINE
  5
119
330
1F
100
AcDbEntity
  8
SLD-0
  6
Continuous
 62
   179
100
AcDbLine
 10
65.01056
 20
208.31532
 30
0.0
 11
65.01056
 21
207.81532
 31
0.0
  0
LINE
  5
11A
330
1F
100
AcDbEntity
  8
SLD-0
  6
Continuous
 62
   179
100
AcDbLine
 10
80.81055
 20
207.81532
 30
0.0
 11
65.01056
 21
207.81532
 31
0.0
  0
LINE
  5
11B
330
1F
100
AcDbEntity
  8
SLD-0
  6
Continuous
 62
   179
100
AcDbLine
 10
61.81055
 20
207.81532
 30
0.0
 11
54.91055
 21
207.81532
 31
0.0
  0
LINE
  5
11C
330
1F
100
AcDbEntity
  8
SLD-0
  6
Continuous
 62
   179
100
AcDbLine
 10
52.91055
 20
209.81532
 30
0.0
 11
52.91055
 21
230.81532
 31
0.0
  0
LINE
  5
11D
330
1F
100
AcDbEntity
  8
SLD-0
  6
Continuous
 62
   179
100
AcDbLine
 10
61.41055
 20
126.81532
 30
0.0
 11
61.41055
 21
148.81532
 31
0.0
  0
LINE
  5
11E
330
1F
100
AcDbEntity
  8
SLD-0
  6
Continuous
 62
   179
100
AcDbLine
 10
65.41055
 20
126.81532
 30
0.0
 11
65.41055
 21
148.81532
 31
0.0
  0
LINE
  5
11F
330
1F
100
AcDbEntity
  8
SLD-0
  6
Continuous
 62
   179
100
AcDbLine
 10
62.06056
 20
148.81532
 30
0.0
 11
62.06056
 21
164.11534
 31
0.0
  0
LINE
  5
120
330
1F
100
AcDbEntity
  8
SLD-0
  6
Continuous
 62
   179
100
AcDbLine
 10
64.76056
 20
148.81532
 30
0.0
 11
64.76056
 21
164.11534
 31
0.0
  0
LINE
  5
121
330
1F
100
AcDbEntity
  8
SLD-0
  6
Continuous
 62
   179
100
AcDbLine
 10
64.81056
 20
148.81532
 30
0.0
 11
64.81056
 21
132.21533
 31
0.0
  0
LINE
  5
122
330
1F
100
AcDbEntity
  8
SLD-0
  6
Continuous
 62
   179
100
AcDbLine
 10
62.01056
 20
148.81532
 30
0.0
 11
62.01056
 21
132.21533
 31
0.0
  0
LINE
  5
123
330
1F
100
AcDbEntity
  8
SLD-0
  6
Continuous
 62
   179
100
AcDbLine
 10
62.76464
 20
127.74515
 30
0.0
 11
64.48074
 21
129.46125
 31
0.0
  0
LINE
  5
124
330
1F
100
AcDbEntity
  8
SLD-0
  6
Continuous
 62
   179
100
AcDbLine
 10
62.34037
 20
128.16942
 30
0.0
 11
64.05647
 21
129.88552
 31
0.0
  0
LINE
  5
125
330
1F
100
AcDbEntity
  8
SLD-0
  6
Continuous
 62
   179
100
AcDbLine
 10
62.66055
 20
135.56532
 30
0.0
 11
62.66055
 21
134.06532
 31
0.0
  0
LINE
  5
126
330
1F
100
AcDbEntity
  8
SLD-0
  6
Continuous
 62
   179
100
AcDbLine
 10
64.16055
 20
135.56532
 30
0.0
 11
64.16055
 21
134.06532
 31
0.0
  0
LINE
  5
127
330
1F
100
AcDbEntity
  8
SLD-0
  6
CENTER
 62
   179
100
AcDbLine
 10
60.66055
 20
128.81532
 30
0.0
 11
66.16055
 21
128.81532
 31
0.0
  0
LINE
  5
128
330
1F
100
AcDbEntity
  8
SLD-0
  6
Continuous
 62
   179
100
AcDbLine
 10
61.41055
 20
126.81532
 30
0.0
 11
65.41055
 21
126.81532
 31
0.0
  0
LINE
  5
129
330
1F
100
AcDbEntity
  8
SLD-0
  6
Continuous
 62
   179
100
AcDbLine
 10
61.41055
 20
148.81532
 30
0.0
 11
65.41055
 21
148.81532
 31
0.0
  0
LINE
  5
12A
330
1F
100
AcDbEntity
  8
SLD-0
  6
CENTER
 62
   179
100
AcDbLine
 10
60.91055
 20
136.81532
 30
0.0
 11
65.91055
 21
136.81532
 31
0.0
  0
LINE
  5
12B
330
1F
100
AcDbEntity
  8
SLD-0
  6
Continuous
 62
   179
100
AcDbLine
 10
84.41055
 20
156.81532
 30
0.0
 11
84.41055
 21
134.81532
 31
0.0
  0
LINE
  5
12C
330
1F
100
AcDbEntity
  8
SLD-0
  6
Continuous
 62
   179
100
AcDbLine
 10
80.41055
 20
156.81532
 30
0.0
 11
80.41055
 21
134.81532
 31
0.0
  0
LINE
  5
12D
330
1F
100
AcDbEntity
  8
SLD-0
  6
Continuous
 62
   179
100
AcDbLine
 10
83.76055
 20
134.81532
 30
0.0
 11
83.76055
 21
119.51531
 31
0.0
  0
LINE
  5
12E
330
1F
100
AcDbEntity
  8
SLD-0
  6
Continuous
 62
   179
100
AcDbLine
 10
81.06055
 20
134.81532
 30
0.0
 11
81.06055
 21
119.51531
 31
0.0
  0
LINE
  5
12F
330
1F
100
AcDbEntity
  8
SLD-0
  6
Continuous
 62
   179
100
AcDbLine
 10
81.01055
 20
134.81532
 30
0.0
 11
81.01055
 21
151.41531
 31
0.0
  0
LINE
  5
130
330
1F
100
AcDbEntity
  8
SLD-0
  6
Continuous
 62
   179
100
AcDbLine
 10
83.81055
 20
134.81532
 30
0.0
 11
83.81055
 21
151.41531
 31
0.0
  0
LINE
  5
131
330
1F
100
AcDbEntity
  8
SLD-0
  6
Continuous
 62
   179
100
AcDbLine
 10
83.05648
 20
155.88549
 30
0.0
 11
81.34038
 21
154.16939
 31
0.0
  0
LINE
  5
132
330
1F
100
AcDbEntity
  8
SLD-0
  6
Continuous
 62
   179
100
AcDbLine
 10
83.48073
 20
155.46123
 30
0.0
 11
81.76464
 21
153.74514
 31
0.0
  0
LINE
  5
133
330
1F
100
AcDbEntity
  8
SLD-0
  6
Continuous
 62
   179
100
AcDbLine
 10
83.16055
 20
148.06532
 30
0.0
 11
83.16055
 21
149.56532
 31
0.0
  0
LINE
  5
134
330
1F
100
AcDbEntity
  8
SLD-0
  6
Continuous
 62
   179
100
AcDbLine
 10
81.66055
 20
148.06532
 30
0.0
 11
81.66055
 21
149.56532
 31
0.0
  0
LINE
  5
135
330
1F
100
AcDbEntity
  8
SLD-0
  6
CENTER
 62
   179
100
AcDbLine
 10
85.16055
 20
154.81532
 30
0.0
 11
79.66055
 21
154.81532
 31
0.0
  0
LINE
  5
136
330
1F
100
AcDbEntity
  8
SLD-0
  6
Continuous
 62
   179
100
AcDbLine
 10
84.41055
 20
156.81532
 30
0.0
 11
80.41055
 21
156.81532
 31
0.0
  0
LINE
  5
137
330
1F
100
AcDbEntity
  8
SLD-0
  6
Continuous
 62
   179
100
AcDbLine
 10
84.41055
 20
134.81532
 30
0.0
 11
80.41055
 21
134.81532
 31
0.0
  0
LINE
  5
138
330
1F
100
AcDbEntity
  8
SLD-0
  6
CENTER
 62
   179
100
AcDbLine
 10
84.91055
 20
146.81532
 30
0.0
 11
79.91055
 21
146.81532
 31
0.0
  0
LINE
  5
139
330
1F
100
AcDbEntity
  8
SLD-0
  6
Continuous
 62
   179
100
AcDbLine
 10
16.0
 20
12.125
 30
0.0
 11
194.0
 21
12.125
 31
0.0
  0
LINE
  5
13A
330
1F
100
AcDbEntity
  8
SLD-0
  6
Continuous
 62
   179
100
AcDbLine
 10
194.0
 20
285.125
 30
0.0
 11
194.0
 21
12.125
 31
0.0
  0
LINE
  5
13B
330
1F
100
AcDbEntity
  8
SLD-0
  6
Continuous
 62
   179
100
AcDbLine
 10
16.0
 20
285.125
 30
0.0
 11
194.0
 21
285.125
 31
0.0
  0
LINE
  5
13C
330
1F
100
AcDbEntity
  8
SLD-0
  6
Continuous
 62
   179
100
AcDbLine
 10
16.0
 20
285.125
 30
0.0
 11
16.0
 21
12.125
 31
0.0
  0
LINE
  5
13D
330
1F
100
AcDbEntity
  8
SLD-0
  6
Continuous
 62
   179
100
AcDbLine
 10
16.0
 20
11.925
 30
0.0
 11
194.0
 21
11.925
 31
0.0
  0
LINE
  5
13E
330
1F
100
AcDbEntity
  8
SLD-0
  6
Continuous
 62
   179
100
AcDbLine
 10
16.0
 20
284.92499
 30
0.0
 11
193.8
 21
284.92499
 31
0.0
  0
LINE
  5
13F
330
1F
100
AcDbEntity
  8
SLD-0
  6
Continuous
 62
   179
100
AcDbLine
 10
193.8
 20
284.92499
 30
0.0
 11
193.8
 21
12.125
 31
0.0
  0
LINE
  5
140
330
1F
100
AcDbEntity
  8
SLD-0
  6
Continuous
 62
   179
100
AcDbLine
 10
16.2
 20
285.125
 30
0.0
 11
16.2
 21
12.125
 31
0.0
  0
LINE
  5
141
330
1F
100
AcDbEntity
  8
SLD-0
  6
Continuous
 62
   179
100
AcDbLine
 10
132.200001
 20
50.625
 30
0.0
 11
132.200001
 21
12.125
 31
0.0
  0
LINE
  5
142
330
1F
100
AcDbEntity
  8
SLD-0
  6
Continuous
 62
   179
100
AcDbLine
 10
132.200001
 20
24.625
 30
0.0
 11
194.0
 21
24.625
 31
0.0
  0
LINE
  5
143
330
1F
100
AcDbEntity
  8
SLD-0
  6
Continuous
 62
   179
100
AcDbLine
 10
132.200001
 20
37.125
 30
0.0
 11
194.0
 21
37.125
 31
0.0
  0
LINE
  5
144
330
1F
100
AcDbEntity
  8
SLD-0
  6
Continuous
 62
   179
100
AcDbLine
 10
132.200001
 20
50.625
 30
0.0
 11
194.0
 21
50.625
 31
0.0
  0
LINE
  5
145
330
1F
100
AcDbEntity
  8
SLD-0
  6
Continuous
 62
   179
100
AcDbLine
 10
63.51641
 20
164.24194
 30
0.0
 11
63.39107
 21
164.09134
 31
0.0
  0
LINE
  5
146
330
1F
100
AcDbEntity
  8
SLD-0
  6
Continuous
 62
   179
100
AcDbLine
 10
63.39107
 20
164.09134
 30
0.0
 11
63.26651
 21
163.94027
 31
0.0
  0
LINE
  5
147
330
1F
100
AcDbEntity
  8
SLD-0
  6
Continuous
 62
   179
100
AcDbLine
 10
82.3047
 20
119.38872
 30
0.0
 11
82.43003
 21
119.53932
 31
0.0
  0
LINE
  5
148
330
1F
100
AcDbEntity
  8
SLD-0
  6
Continuous
 62
   179
100
AcDbLine
 10
82.43003
 20
119.53932
 30
0.0
 11
82.5546
 21
119.69038
 31
0.0
  0
LINE
  5
149
330
1F
100
AcDbEntity
  8
SLD-0
  6
Continuous
 62
   179
100
AcDbLine
 10
173.030087
 20
177.81532
 30
0.0
 11
173.030087
 21
187.81532
 31
0.0
  0
LINE
  5
14A
330
1F
100
AcDbEntity
  8
SLD-0
  6
Continuous
 62
   179
100
AcDbLine
 10
173.030087
 20
177.81532
 30
0.0
 11
172.030087
 21
180.81532
 31
0.0
  0
LINE
  5
14B
330
1F
100
AcDbEntity
  8
SLD-0
  6
Continuous
 62
   179
100
AcDbLine
 10
173.030087
 20
177.81532
 30
0.0
 11
174.030087
 21
180.81532
 31
0.0
  0
LINE
  5
14C
330
1F
100
AcDbEntity
  8
SLD-0
  6
Continuous
 62
   179
100
AcDbLine
 10
173.030087
 20
187.81532
 30
0.0
 11
174.030087
 21
184.81532
 31
0.0
  0
LINE
  5
14D
330
1F
100
AcDbEntity
  8
SLD-0
  6
Continuous
 62
   179
100
AcDbLine
 10
173.030087
 20
187.81532
 30
0.0
 11
172.030087
 21
184.81532
 31
0.0
  0
LINE
  5
14E
330
1F
100
AcDbEntity
  8
SLD-0
  6
Continuous
 62
   179
100
AcDbLine
 10
158.410553
 20
177.81532
 30
0.0
 11
175.316086
 21
177.81532
 31
0.0
  0
LINE
  5
14F
330
1F
100
AcDbEntity
  8
SLD-0
  6
Continuous
 62
   179
100
AcDbLine
 10
158.410553
 20
187.81532
 30
0.0
 11
175.316086
 21
187.81532
 31
0.0
  0
CIRCLE
  5
150
330
1F
100
AcDbEntity
  8
SLD-0
  6
Continuous
 62
   179
100
AcDbCircle
 10
145.410553
 20
131.81532
 30
0.0
 40
2.1500001
  0
CIRCLE
  5
151
330
1F
100
AcDbEntity
  8
SLD-0
  6
Continuous
 62
   179
100
AcDbCircle
 10
145.410553
 20
157.81532
 30
0.0
 40
2.1500001
  0
CIRCLE
  5
152
330
1F
100
AcDbEntity
  8
SLD-0
  6
Continuous
 62
   179
100
AcDbCircle
 10
145.410553
 20
157.81532
 30
0.0
 40
2.5
  0
CIRCLE
  5
153
330
1F
100
AcDbEntity
  8
SLD-0
  6
Continuous
 62
   179
100
AcDbCircle
 10
145.410553
 20
131.81532
 30
0.0
 40
2.5
  0
CIRCLE
  5
154
330
1F
100
AcDbEntity
  8
SLD-0
  6
Continuous
 62
   179
100
AcDbCircle
 10
145.410553
 20
131.81532
 30
0.0
 40
0.75
  0
CIRCLE
  5
155
330
1F
100
AcDbEntity
  8
SLD-0
  6
Continuous
 62
   179
100
AcDbCircle
 10
56.91055
 20
138.81532
 30
0.0
 40
2.500000000000007
  0
CIRCLE
  5
156
330
1F
100
AcDbEntity
  8
SLD-0
  6
Continuous
 62
   179
100
AcDbCircle
 10
56.91055
 20
138.81532
 30
0.0
 40
2.150000100000007
  0
CIRCLE
  5
157
330
1F
100
AcDbEntity
  8
SLD-0
  6
Continuous
 62
   179
100
AcDbCircle
 10
56.91055
 20
228.31532
 30
0.0
 40
2.000000000000007
  0
CIRCLE
  5
158
330
1F
100
AcDbEntity
  8
SLD-0
  6
Continuous
 62
   179
100
AcDbCircle
 10
56.91055
 20
212.31532
 30
0.0
 40
2.000000000000007
  0
CIRCLE
  5
159
330
1F
100
AcDbEntity
  8
SLD-0
  6
Continuous
 62
   179
100
AcDbCircle
 10
88.91055
 20
212.31532
 30
0.0
 40
2.0
  0
CIRCLE
  5
15A
330
1F
100
AcDbEntity
  8
SLD-0
  6
Continuous
 62
   179
100
AcDbCircle
 10
88.91055
 20
228.31532
 30
0.0
 40
2.0
  0
CIRCLE
  5
15B
330
1F
100
AcDbEntity
  8
SLD-0
  6
Continuous
 62
   179
100
AcDbCircle
 10
88.91055
 20
228.31532
 30
0.0
 40
1.700000000000003
  0
CIRCLE
  5
15C
330
1F
100
AcDbEntity
  8
SLD-0
  6
Continuous
 62
   179
100
AcDbCircle
 10
56.91055
 20
228.31532
 30
0.0
 40
1.700000000000003
  0
CIRCLE
  5
15D
330
1F
100
AcDbEntity
  8
SLD-0
  6
Continuous
 62
   179
100
AcDbCircle
 10
56.91055
 20
212.31532
 30
0.0
 40
1.700000000000003
  0
CIRCLE
  5
15E
330
1F
100
AcDbEntity
  8
SLD-0
  6
Continuous
 62
   179
100
AcDbCircle
 10
88.91055
 20
212.31532
 30
0.0
 40
1.700000000000003
  0
CIRCLE
  5
15F
330
1F
100
AcDbEntity
  8
SLD-0
  6
Continuous
 62
   179
100
AcDbCircle
 10
145.410553
 20
157.81532
 30
0.0
 40
0.75
  0
CIRCLE
  5
160
330
1F
100
AcDbEntity
  8
SLD-0
  6
Continuous
 62
   179
100
AcDbCircle
 10
88.91055
 20
138.81532
 30
0.0
 40
2.5
  0
CIRCLE
  5
161
330
1F
100
AcDbEntity
  8
SLD-0
  6
Continuous
 62
   179
100
AcDbCircle
 10
88.91055
 20
138.81532
 30
0.0
 40
2.1500001
  0
CIRCLE
  5
162
330
1F
100
AcDbEntity
  8
SLD-0
  6
Continuous
 62
   179
100
AcDbCircle
 10
72.91055
 20
220.31532
 30
0.0
 40
2.980385100000007
  0
CIRCLE
  5
163
330
1F
100
AcDbEntity
  8
SLD-0
  6
Continuous
 62
   179
100
AcDbCircle
 10
72.91055
 20
220.31532
 30
0.0
 40
3.5
  0
CIRCLE
  5
164
330
1F
100
AcDbEntity
  8
SLD-0
  6
Continuous
 62
   179
100
AcDbCircle
 10
72.91055
 20
220.31532
 30
0.0
 40
4.000000000000014
  0
CIRCLE
  5
165
330
1F
100
AcDbEntity
  8
SLD-0
  6
Continuous
 62
   179
100
AcDbCircle
 10
57.91055
 20
220.31532
 30
0.0
 40
2.403589699999998
  0
CIRCLE
  5
166
330
1F
100
AcDbEntity
  8
SLD-0
  6
Continuous
 62
   179
100
AcDbCircle
 10
57.91055
 20
220.31532
 30
0.0
 40
2.75
  0
CIRCLE
  5
167
330
1F
100
AcDbEntity
  8
SLD-0
  6
Continuous
 62
   179
100
AcDbCircle
 10
57.91055
 20
220.31532
 30
0.0
 40
3.25
  0
CIRCLE
  5
168
330
1F
100
AcDbEntity
  8
SLD-0
  6
HIDDEN
 62
   179
100
AcDbCircle
 10
72.91055
 20
67.815327
 30
0.0
 40
11.0
  0
CIRCLE
  5
169
330
1F
100
AcDbEntity
  8
SLD-0
  6
Continuous
 62
   179
100
AcDbCircle
 10
72.91055
 20
67.815327
 30
0.0
 40
10.5
  0
ARC
  5
16A
330
1F
100
AcDbEntity
  8
SLD-0
  6
Continuous
 62
   179
100
AcDbCircle
 10
72.91055
 20
66.940327
 30
0.0
 40
9.374999999999995
100
AcDbArc
 50
325.26784
 51
214.73215
  0
ARC
  5
16B
330
1F
100
AcDbEntity
  8
SLD-0
  6
Continuous
 62
   179
100
AcDbCircle
 10
68.6605499775
 20
60.4541130838
 30
0.0
 40
2.000000086776993
100
AcDbArc
 50
0.0
 51
104.9997587248
  0
CIRCLE
  5
16C
330
1F
100
AcDbEntity
  8
SLD-0
  6
Continuous
 62
   179
100
AcDbCircle
 10
68.6605499775
 20
60.4541130838
 30
0.0
 40
0.9999999999999976
  0
ARC
  5
16D
330
1F
100
AcDbEntity
  8
SLD-0
  6
Continuous
 62
   179
100
AcDbCircle
 10
77.1605504149
 20
60.454113
 30
0.0
 40
2.000000414937929
100
AcDbArc
 50
74.9999497287
 51
180.0
  0
CIRCLE
  5
16E
330
1F
100
AcDbEntity
  8
SLD-0
  6
Continuous
 62
   179
100
AcDbCircle
 10
77.1605504149
 20
60.454113
 30
0.0
 40
0.9999999999999955
  0
ARC
  5
16F
330
1F
100
AcDbEntity
  8
SLD-0
  6
Continuous
 62
   179
100
AcDbCircle
 10
90.91055
 20
78.315323
 30
0.0
 40
2.000000000000014
100
AcDbArc
 50
0.0
 51
90.0
  0
ARC
  5
170
330
1F
100
AcDbEntity
  8
SLD-0
  6
Continuous
 62
   179
100
AcDbCircle
 10
54.910551506
 20
57.3153257198
 30
0.0
 40
2.000000000000007
100
AcDbArc
 50
180.0
 51
270.0
  0
ARC
  5
171
330
1F
100
AcDbEntity
  8
SLD-0
  6
Continuous
 62
   179
100
AcDbCircle
 10
90.91055
 20
57.315327
 30
0.0
 40
2.000000000000014
100
AcDbArc
 50
270.0
 51
0.0
  0
ARC
  5
172
330
1F
100
AcDbEntity
  8
SLD-0
  6
Continuous
 62
   179
100
AcDbCircle
 10
54.910551506
 20
78.3153217198
 30
0.0
 40
2.0
100
AcDbArc
 50
90.0
 51
180.0
  0
ARC
  5
173
330
1F
100
AcDbEntity
  8
SLD-0
  6
Continuous
 62
   179
100
AcDbCircle
 10
63.41055
 20
77.815323
 30
0.0
 40
2.100001876594547
100
AcDbArc
 50
139.6322827881
 51
40.367603
  0
ARC
  5
174
330
1F
100
AcDbEntity
  8
SLD-0
  6
Continuous
 62
   179
100
AcDbCircle
 10
63.4105545518
 20
57.8153281595
 30
0.0
 40
2.049999800212378
100
AcDbArc
 50
321.3055779465
 51
218.6945967827
  0
ARC
  5
175
330
1F
100
AcDbEntity
  8
SLD-0
  6
Continuous
 62
   179
100
AcDbCircle
 10
82.41055
 20
77.815323
 30
0.0
 40
2.100001876594552
100
AcDbArc
 50
139.6322827881
 51
40.367603
  0
ARC
  5
176
330
1F
100
AcDbEntity
  8
SLD-0
  6
Continuous
 62
   179
100
AcDbCircle
 10
82.41055
 20
77.815323
 30
0.0
 40
2.000004857916344
100
AcDbArc
 50
138.5902200885
 51
41.4097799115
  0
ARC
  5
177
330
1F
100
AcDbEntity
  8
SLD-0
  6
Continuous
 62
   179
100
AcDbCircle
 10
63.41055
 20
77.815323
 30
0.0
 40
2.000004857916349
100
AcDbArc
 50
138.5902200885
 51
41.4097799115
  0
CIRCLE
  5
178
330
1F
100
AcDbEntity
  8
SLD-0
  6
Continuous
 62
   179
100
AcDbCircle
 10
82.41055
 20
77.815323
 30
0.0
 40
1.350000000000009
  0
CIRCLE
  5
179
330
1F
100
AcDbEntity
  8
SLD-0
  6
HIDDEN
 62
   179
100
AcDbCircle
 10
72.91055
 20
67.815327
 30
0.0
 40
10.0
  0
CIRCLE
  5
17A
330
1F
100
AcDbEntity
  8
SLD-0
  6
HIDDEN
 62
   179
100
AcDbCircle
 10
57.91055
 20
67.815327
 30
0.0
 40
3.25
  0
CIRCLE
  5
17B
330
1F
100
AcDbEntity
  8
SLD-0
  6
HIDDEN
 62
   179
100
AcDbCircle
 10
72.91055
 20
67.815327
 30
0.0
 40
9.0
  0
CIRCLE
  5
17C
330
1F
100
AcDbEntity
  8
SLD-0
  6
HIDDEN
 62
   179
100
AcDbCircle
 10
72.91055
 20
67.815327
 30
0.0
 40
7.000000000000014
  0
ARC
  5
17D
330
1F
100
AcDbEntity
  8
SLD-0
  6
Continuous
 62
   179
100
AcDbCircle
 10
82.4105531068
 20
57.8153318814
 30
0.0
 40
2.049997948880392
100
AcDbArc
 50
321.30553
 51
218.6945967827
  0
ARC
  5
17E
330
1F
100
AcDbEntity
  8
SLD-0
  6
Continuous
 62
   179
100
AcDbCircle
 10
90.91055
 20
230.81532
 30
0.0
 40
2.000000000000014
100
AcDbArc
 50
0.0
 51
90.0
  0
ARC
  5
17F
330
1F
100
AcDbEntity
  8
SLD-0
  6
Continuous
 62
   179
100
AcDbCircle
 10
54.91055
 20
230.81532
 30
0.0
 40
2.0
100
AcDbArc
 50
90.0
 51
180.0
  0
ARC
  5
180
330
1F
100
AcDbEntity
  8
SLD-0
  6
Continuous
 62
   179
100
AcDbCircle
 10
90.91055
 20
209.81532
 30
0.0
 40
2.000000000000014
100
AcDbArc
 50
270.0
 51
0.0
  0
ARC
  5
181
330
1F
100
AcDbEntity
  8
SLD-0
  6
Continuous
 62
   179
100
AcDbCircle
 10
54.91055
 20
209.81532
 30
0.0
 40
2.0
100
AcDbArc
 50
180.0
 51
270.0
  0
ARC
  5
182
330
1F
100
AcDbEntity
  8
SLD-0
  6
Continuous
 62
   179
100
AcDbCircle
 10
63.410555
 20
132.21533
 30
0.0
 40
1.399995000000011
100
AcDbArc
 50
180.0
 51
0.0
  0
CIRCLE
  5
183
330
1F
100
AcDbEntity
  8
SLD-0
  6
Continuous
 62
   179
100
AcDbCircle
 10
63.41055
 20
128.81532
 30
0.0
 40
1.250000000000007
  0
ARC
  5
184
330
1F
100
AcDbEntity
  8
SLD-0
  6
Continuous
 62
   179
100
AcDbCircle
 10
63.41055
 20
134.06532
 30
0.0
 40
0.7500000000000071
100
AcDbArc
 50
180.0
 51
0.0
  0
ARC
  5
185
330
1F
100
AcDbEntity
  8
SLD-0
  6
Continuous
 62
   179
100
AcDbCircle
 10
63.41055
 20
135.56532
 30
0.0
 40
0.7500000000000071
100
AcDbArc
 50
0.0
 51
180.0
  0
ARC
  5
186
330
1F
100
AcDbEntity
  8
SLD-0
  6
Continuous
 62
   179
100
AcDbCircle
 10
82.41055
 20
151.41531
 30
0.0
 40
1.400000000000006
100
AcDbArc
 50
0.0
 51
180.0
  0
CIRCLE
  5
187
330
1F
100
AcDbEntity
  8
SLD-0
  6
Continuous
 62
   179
100
AcDbCircle
 10
82.41055
 20
154.81532
 30
0.0
 40
1.25
  0
ARC
  5
188
330
1F
100
AcDbEntity
  8
SLD-0
  6
Continuous
 62
   179
100
AcDbCircle
 10
82.41055
 20
149.56532
 30
0.0
 40
0.75
100
AcDbArc
 50
0.0
 51
180.0
  0
ARC
  5
189
330
1F
100
AcDbEntity
  8
SLD-0
  6
Continuous
 62
   179
100
AcDbCircle
 10
82.41055
 20
148.06532
 30
0.0
 40
0.75
100
AcDbArc
 50
180.0
 51
0.0
  0
ARC
  5
18A
330
1F
100
AcDbEntity
  8
SLD-0
  6
Continuous
 62
   179
100
AcDbCircle
 10
63.530450425
 20
163.2973178344
 30
0.0
 40
1.477271075334126
100
AcDbArc
 50
33.6238834822
 51
41.2324455885
  0
ARC
  5
18B
330
1F
100
AcDbEntity
  8
SLD-0
  6
Continuous
 62
   179
100
AcDbCircle
 10
63.3828717158
 20
163.1739417237
 30
0.0
 40
1.669581560319765
100
AcDbArc
 50
41.0784487868
 51
47.7997232299
  0
ARC
  5
18C
330
1F
100
AcDbEntity
  8
SLD-0
  6
Continuous
 62
   179
100
AcDbCircle
 10
63.8138649718
 20
163.6509982059
 30
0.0
 40
1.02666955404837
100
AcDbArc
 50
47.734429539
 51
58.6490044715
  0
ARC
  5
18D
330
1F
100
AcDbEntity
  8
SLD-0
  6
Continuous
 62
   179
100
AcDbCircle
 10
64.0097859778
 20
163.9851534321
 30
0.0
 40
0.6394020594276412
100
AcDbArc
 50
58.0631070548
 51
75.6405921998
  0
ARC
  5
18E
330
1F
100
AcDbEntity
  8
SLD-0
  6
Continuous
 62
   179
100
AcDbCircle
 10
64.0802022426
 20
164.2520453716
 30
0.0
 40
0.3633902233199011
100
AcDbArc
 50
75.9600700955
 51
106.8957003666
  0
ARC
  5
18F
330
1F
100
AcDbEntity
  8
SLD-0
  6
Continuous
 62
   179
100
AcDbCircle
 10
64.1595670977
 20
164.0039331263
 30
0.0
 40
0.6238703981587001
100
AcDbArc
 50
107.2474600435
 51
125.220012351
  0
ARC
  5
190
330
1F
100
AcDbEntity
  8
SLD-0
  6
Continuous
 62
   179
100
AcDbCircle
 10
64.4090802832
 20
163.638167166
 30
0.0
 40
1.066602863363034
100
AcDbArc
 50
124.838314974
 51
135.4230527987
  0
ARC
  5
191
330
1F
100
AcDbEntity
  8
SLD-0
  6
Continuous
 62
   179
100
AcDbCircle
 10
65.5773860665
 20
162.4839880339
 30
0.0
 40
2.708877528031873
100
AcDbArc
 50
135.3778550684
 51
139.5367970588
  0
ARC
  5
192
330
1F
100
AcDbEntity
  8
SLD-0
  6
Continuous
 62
   179
100
AcDbCircle
 10
61.7434746684
 20
165.2216941675
 30
0.0
 40
1.99039808035632
100
AcDbArc
 50
314.2542013018
 51
319.9240155649
  0
ARC
  5
193
330
1F
100
AcDbEntity
  8
SLD-0
  6
Continuous
 62
   179
100
AcDbCircle
 10
62.6340153703
 20
164.3035507074
 30
0.0
 40
0.711325324475826
100
AcDbArc
 50
298.6724083566
 51
314.4853343724
  0
ARC
  5
194
330
1F
100
AcDbEntity
  8
SLD-0
  6
Continuous
 62
   179
100
AcDbCircle
 10
62.7182472411
 20
164.1707620893
 30
0.0
 40
0.5544987205502591
100
AcDbArc
 50
277.342254298
 51
297.619321907
  0
ARC
  5
195
330
1F
100
AcDbEntity
  8
SLD-0
  6
Continuous
 62
   179
100
AcDbCircle
 10
62.7207620167
 20
164.1468406009
 30
0.0
 40
0.5304522974369338
100
AcDbArc
 50
256.2454419834
 51
277.4030566633
  0
ARC
  5
196
330
1F
100
AcDbEntity
  8
SLD-0
  6
Continuous
 62
   179
100
AcDbCircle
 10
62.8045646156
 20
164.471611732
 30
0.0
 40
0.8658452830390859
100
AcDbArc
 50
242.9807568019
 51
255.9687843127
  0
ARC
  5
197
330
1F
100
AcDbEntity
  8
SLD-0
  6
Continuous
 62
   179
100
AcDbCircle
 10
62.7816877643
 20
164.4728498303
 30
0.0
 40
0.8568115070461378
100
AcDbArc
 50
231.3597262813
 51
244.3813332924
  0
ARC
  5
198
330
1F
100
AcDbEntity
  8
SLD-0
  6
Continuous
 62
   179
100
AcDbCircle
 10
62.6199776504
 20
164.2651429312
 30
0.0
 40
0.5936086660366162
100
AcDbArc
 50
212.096596591
 51
231.0325808917
  0
ARC
  5
199
330
1F
100
AcDbEntity
  8
SLD-0
  6
Continuous
 62
   179
100
AcDbCircle
 10
62.3955019523
 20
164.1350326862
 30
0.0
 40
0.334431955009756
100
AcDbArc
 50
180.0
 51
213.6475001732
  0
ARC
  5
19A
330
1F
100
AcDbEntity
  8
SLD-0
  6
Continuous
 62
   179
100
AcDbCircle
 10
62.3975177379
 20
164.1046378565
 30
0.0
 40
0.3378140508949741
100
AcDbArc
 50
141.7600402133
 51
174.845098702
  0
ARC
  5
19B
330
1F
100
AcDbEntity
  8
SLD-0
  6
Continuous
 62
   179
100
AcDbCircle
 10
62.6769797388
 20
163.9075441877
 30
0.0
 40
0.6795460055300441
100
AcDbArc
 50
126.7490157487
 51
143.2924248538
  0
ARC
  5
19C
330
1F
100
AcDbEntity
  8
SLD-0
  6
Continuous
 62
   179
100
AcDbCircle
 10
62.7692821675
 20
163.7808149262
 30
0.0
 40
0.8363172345389494
100
AcDbArc
 50
113.1814981373
 51
126.6212541784
  0
ARC
  5
19D
330
1F
100
AcDbEntity
  8
SLD-0
  6
Continuous
 62
   179
100
AcDbCircle
 10
62.7691229804
 20
163.8166867045
 30
0.0
 40
0.8034005357870601
100
AcDbArc
 50
100.1596417041
 51
114.1781558611
  0
ARC
  5
19E
330
1F
100
AcDbEntity
  8
SLD-0
  6
Continuous
 62
   179
100
AcDbCircle
 10
62.7190620658
 20
164.0852904302
 30
0.0
 40
0.530181564956814
100
AcDbArc
 50
78.7197368714
 51
99.9546828072
  0
ARC
  5
19F
330
1F
100
AcDbEntity
  8
SLD-0
  6
Continuous
 62
   179
100
AcDbCircle
 10
62.7015972399
 20
164.0018033823
 30
0.0
 40
0.6154725994832117
100
AcDbArc
 50
60.2976930583
 51
78.6455720982
  0
ARC
  5
1A0
330
1F
100
AcDbEntity
  8
SLD-0
  6
Continuous
 62
   179
100
AcDbCircle
 10
62.5972412526
 20
163.8345055803
 30
0.0
 40
0.8125340924085803
100
AcDbArc
 50
45.9367250417
 51
59.7512067951
  0
ARC
  5
1A1
330
1F
100
AcDbEntity
  8
SLD-0
  6
Continuous
 62
   179
100
AcDbCircle
 10
61.9775751127
 20
163.1837285052
 30
0.0
 40
1.71112830284883
100
AcDbArc
 50
39.5811971808
 51
46.1814813134
  0
ARC
  5
1A2
330
1F
100
AcDbEntity
  8
SLD-0
  6
Continuous
 62
   179
100
AcDbCircle
 10
62.2362149868
 20
163.3907647838
 30
0.0
 40
1.379881142442121
100
AcDbArc
 50
31.6749573145
 51
39.798373943
  0
ARC
  5
1A3
330
1F
100
AcDbEntity
  8
SLD-0
  6
Continuous
 62
   179
100
AcDbCircle
 10
82.2908943471
 20
120.3335118453
 30
0.0
 40
1.477566063506455
100
AcDbArc
 50
213.6246441043
 51
221.2316849664
  0
ARC
  5
1A4
330
1F
100
AcDbEntity
  8
SLD-0
  6
Continuous
 62
   179
100
AcDbCircle
 10
82.437898056
 20
120.4563746452
 30
0.0
 40
1.669105866666594
100
AcDbArc
 50
221.0774899079
 51
227.8006821088
  0
ARC
  5
1A5
330
1F
100
AcDbEntity
  8
SLD-0
  6
Continuous
 62
   179
100
AcDbCircle
 10
82.007265652
 20
119.97960442
 30
0.0
 40
1.026648367476683
100
AcDbArc
 50
227.7317995816
 51
238.6469363408
  0
ARC
  5
1A6
330
1F
100
AcDbEntity
  8
SLD-0
  6
Continuous
 62
   179
100
AcDbCircle
 10
81.8113502911
 20
119.6455686591
 30
0.0
 40
0.6394856207344454
100
AcDbArc
 50
238.0650004454
 51
255.6410041895
  0
ARC
  5
1A7
330
1F
100
AcDbEntity
  8
SLD-0
  6
Continuous
 62
   179
100
AcDbCircle
 10
81.7408967153
 20
119.3785004241
 30
0.0
 40
0.3632937283862125
100
AcDbArc
 50
255.9596852356
 51
286.90214297
  0
ARC
  5
1A8
330
1F
100
AcDbEntity
  8
SLD-0
  6
Continuous
 62
   179
100
AcDbCircle
 10
81.6614050514
 20
119.626878252
 30
0.0
 40
0.6240653980284988
100
AcDbArc
 50
287.2551541041
 51
305.2228659231
  0
ARC
  5
1A9
330
1F
100
AcDbEntity
  8
SLD-0
  6
Continuous
 62
   179
100
AcDbCircle
 10
81.412000885
 20
119.9926559881
 30
0.0
 40
1.06674503965422
100
AcDbArc
 50
304.8348867704
 51
315.4182746103
  0
ARC
  5
1AA
330
1F
100
AcDbEntity
  8
SLD-0
  6
Continuous
 62
   179
100
AcDbCircle
 10
80.2459596068
 20
121.1444873212
 30
0.0
 40
2.70575883864112
100
AcDbArc
 50
315.3776762476
 51
319.5412707254
  0
ARC
  5
1AB
330
1F
100
AcDbEntity
  8
SLD-0
  6
Continuous
 62
   179
100
AcDbCircle
 10
84.0784746964
 20
118.4081755492
 30
0.0
 40
1.991542704577579
100
AcDbArc
 50
134.2558319732
 51
139.9223848936
  0
ARC
  5
1AC
330
1F
100
AcDbEntity
  8
SLD-0
  6
Continuous
 62
   179
100
AcDbCircle
 10
83.1871230812
 20
119.3270316855
 30
0.0
 40
0.711393494661967
100
AcDbArc
 50
118.6710996591
 51
134.483153672
  0
ARC
  5
1AD
330
1F
100
AcDbEntity
  8
SLD-0
  6
Continuous
 62
   179
100
AcDbCircle
 10
83.1029059011
 20
119.4598885502
 30
0.0
 40
0.5545135192814422
100
AcDbArc
 50
97.3465518622
 51
117.622386769
  0
ARC
  5
1AE
330
1F
100
AcDbEntity
  8
SLD-0
  6
Continuous
 62
   179
100
AcDbCircle
 10
83.1003291994
 20
119.4838414345
 30
0.0
 40
0.530428025678734
100
AcDbArc
 50
76.241599204
 51
97.4013512586
  0
ARC
  5
1AF
330
1F
100
AcDbEntity
  8
SLD-0
  6
Continuous
 62
   179
100
AcDbCircle
 10
83.0165204512
 20
119.1590595281
 30
0.0
 40
0.8658331277200677
100
AcDbArc
 50
62.9792373369
 51
75.9662005088
  0
ARC
  5
1B0
330
1F
100
AcDbEntity
  8
SLD-0
  6
Continuous
 62
   179
100
AcDbCircle
 10
83.0394594122
 20
119.1578235211
 30
0.0
 40
0.8567700537674076
100
AcDbArc
 50
51.3606930533
 51
64.3835028219
  0
ARC
  5
1B1
330
1F
100
AcDbEntity
  8
SLD-0
  6
Continuous
 62
   179
100
AcDbCircle
 10
83.2010432162
 20
119.3654280309
 30
0.0
 40
0.5937261727246408
100
AcDbArc
 50
32.0984876781
 51
51.0306898046
  0
ARC
  5
1B2
330
1F
100
AcDbEntity
  8
SLD-0
  6
Continuous
 62
   179
100
AcDbCircle
 10
83.4256141107
 20
119.4956010985
 30
0.0
 40
0.3344358928855453
100
AcDbArc
 50
0.0083778471
 51
33.6503883099
  0
ARC
  5
1B3
330
1F
100
AcDbEntity
  8
SLD-0
  6
Continuous
 62
   179
100
AcDbCircle
 10
83.4236574723
 20
119.5260215558
 30
0.0
 40
0.3377608089477806
100
AcDbArc
 50
321.7508893699
 51
354.8409775434
  0
ARC
  5
1B4
330
1F
100
AcDbEntity
  8
SLD-0
  6
Continuous
 62
   179
100
AcDbCircle
 10
83.143880058
 20
119.7233458418
 30
0.0
 40
0.6798820504674108
100
AcDbArc
 50
306.7531328212
 51
323.2883077813
  0
ARC
  5
1B5
330
1F
100
AcDbEntity
  8
SLD-0
  6
Continuous
 62
   179
100
AcDbCircle
 10
83.0519014005
 20
119.8496560196
 30
0.0
 40
0.8361236770212439
100
AcDbArc
 50
293.1816938118
 51
306.6239772801
  0
ARC
  5
1B6
330
1F
100
AcDbEntity
  8
SLD-0
  6
Continuous
 62
   179
100
AcDbCircle
 10
83.0520238784
 20
119.8138439947
 30
0.0
 40
0.8032766042221953
100
AcDbArc
 50
280.1585548696
 51
294.1792426956
  0
ARC
  5
1B7
330
1F
100
AcDbEntity
  8
SLD-0
  6
Continuous
 62
   179
100
AcDbCircle
 10
83.1020488052
 20
119.5454348566
 30
0.0
 40
0.5302555680084659
100
AcDbArc
 50
258.7212358516
 51
279.953183827
  0
ARC
  5
1B8
330
1F
100
AcDbEntity
  8
SLD-0
  6
Continuous
 62
   179
100
AcDbCircle
 10
83.1195333877
 20
119.6288683382
 30
0.0
 40
0.6154979561740899
100
AcDbArc
 50
240.2957571811
 51
258.6440875567
  0
ARC
  5
1B9
330
1F
100
AcDbEntity
  8
SLD-0
  6
Continuous
 62
   179
100
AcDbCircle
 10
83.2237566758
 20
119.7960691872
 30
0.0
 40
0.8124090468015073
100
AcDbArc
 50
225.9382078653
 51
239.75439723
  0
ARC
  5
1BA
330
1F
100
AcDbEntity
  8
SLD-0
  6
Continuous
 62
   179
100
AcDbCircle
 10
83.8438700114
 20
120.4472419945
 30
0.0
 40
1.711598511004594
100
AcDbArc
 50
219.5821047951
 51
226.1805736991
  0
ARC
  5
1BB
330
1F
100
AcDbEntity
  8
SLD-0
  6
Continuous
 62
   179
100
AcDbCircle
 10
83.5848848553
 20
120.2398851026
 30
0.0
 40
1.379880948361907
100
AcDbArc
 50
211.6749567423
 51
219.7983745152
  0
MTEXT
  5
1BD
330
1F
100
AcDbEntity
  8
SLD-0
 62
     7
100
AcDbMText
 10
136.885166
 20
47.2462412496
 30
0.0
 40
4.8000002
 41
0.0
 71
     1
 72
     1
  1
ミニコンテナシリンダー
  7
SLDTEXTSTYLE4
 73
     1
 44
1.0
  0
MTEXT
  5
1BF
330
1F
100
AcDbEntity
  8
SLD-0
 62
     7
100
AcDbMText
 10
154.432095
 20
41.4100125369
 30
0.0
 40
3.2
 41
0.0
 71
     1
 72
     1
  1
（複動型）
  7
SLDTEXTSTYLE5
 73
     1
 44
1.0
  0
MTEXT
  5
1C1
330
1F
100
AcDbEntity
  8
SLD-0
 62
     7
100
AcDbMText
 10
141.529022
 20
31.4757772496
 30
0.0
 40
4.8000002
 41
0.0
 71
     1
 72
     1
  1
ＮＣＯＮ－Ｍ１０Ｗ
  7
SLDTEXTSTYLE6
 73
     1
 44
1.0
  0
MTEXT
  5
1C3
330
1F
100
AcDbEntity
  8
SLD-0
 62
     7
100
AcDbMText
 10
149.353595
 20
19.7650348496
 30
0.0
 40
4.8000002
 41
0.0
 71
     1
 72
     1
  1
１３０７０９
  7
SLDTEXTSTYLE7
 73
     1
 44
1.0
  0
MTEXT
  5
1C5
330
1F
100
AcDbEntity
  8
SLD-0
 62
     7
100
AcDbMText
 10
169.5753674631
 20
180.07232
 30
0.0
 40
3.2
 41
0.0
 71
     1
 72
     1
  1
st
  7
SLDTEXTSTYLE8
 11
6.123031769111886E-17
 21
1.0
 31
0.0
 73
     1
 44
1.0
  0
INSERT
  5
1C6
330
1F
100
AcDbEntity
  8
0
  6
Continuous
 62
     7
370
     0
100
AcDbBlockReference
  2
KOZU0001
 10
89.90745
 20
230.04917
 30
0.0
  0
INSERT
  5
1C7
330
1F
100
AcDbEntity
  8
0
  6
Continuous
 62
     7
370
     0
100
AcDbBlockReference
  2
KOZU0002
 10
146.569203
 20
129.60003
 30
0.0
  0
INSERT
  5
1C8
330
1F
100
AcDbEntity
  8
0
  6
Continuous
 62
     7
370
     0
100
AcDbBlockReference
  2
KOZU0003
 10
63.59616
 20
129.90896
 30
0.0
  0
INSERT
  5
1C9
330
1F
100
AcDbEntity
  8
0
  6
Continuous
 62
     7
370
     0
100
AcDbBlockReference
  2
KOZU0004
 10
90.92078
 20
140.3016
 30
0.0
  0
ENDSEC
  0
SECTION
  2
OBJECTS
  0
DICTIONARY
  5
C
330
0
100
AcDbDictionary
281
     1
  3
ACAD_GROUP
350
D
  3
ACAD_LAYOUT
350
1A
  3
ACAD_MLINESTYLE
350
17
  3
ACAD_PLOTSETTINGS
350
19
  3
ACAD_PLOTSTYLENAME
350
E
  0
DICTIONARY
  5
D
102
{ACAD_REACTORS
330
C
102
}
330
C
100
AcDbDictionary
281
     1
  0
DICTIONARY
  5
1A
102
{ACAD_REACTORS
330
C
102
}
330
C
100
AcDbDictionary
281
     1
  3
Layout1
350
1E
  3
Layout2
350
26
  3
Model
350
22
  0
DICTIONARY
  5
17
102
{ACAD_REACTORS
330
C
102
}
330
C
100
AcDbDictionary
281
     1
  3
Standard
350
18
  0
DICTIONARY
  5
19
102
{ACAD_REACTORS
330
C
102
}
330
C
100
AcDbDictionary
281
     1
  0
ACDBDICTIONARYWDFLT
  5
E
102
{ACAD_REACTORS
330
C
102
}
330
C
100
AcDbDictionary
281
     1
  3
Normal
350
F
100
AcDbDictionaryWithDefault
340
F
  0
LAYOUT
  5
1E
102
{ACAD_REACTORS
330
1A
102
}
330
1A
100
AcDbPlotSettings
  1

  2

  4

  6

 40
0.0
 41
0.0
 42
0.0
 43
0.0
 44
0.0
 45
0.0
 46
0.0
 47
0.0
 48
0.0
 49
0.0
140
0.0
141
0.0
142
1.0
143
1.0
 70
   688
 72
     0
 73
     0
 74
     5
  7

 75
    16
147
1.0
148
0.0
149
0.0
100
AcDbLayout
  1
Layout1
 70
     1
 71
     1
 10
0.0
 20
0.0
 11
0.0
 21
0.0
 12
0.0
 22
0.0
 32
0.0
 14
0.0
 24
0.0
 34
0.0
 15
0.0
 25
0.0
 35
0.0
146
0.0
 13
0.0
 23
0.0
 33
0.0
 16
1.0
 26
0.0
 36
0.0
 17
0.0
 27
1.0
 37
0.0
 76
     0
330
1B
  0
LAYOUT
  5
26
102
{ACAD_REACTORS
330
1A
102
}
330
1A
100
AcDbPlotSettings
  1

  2

  4

  6

 40
0.0
 41
0.0
 42
0.0
 43
0.0
 44
0.0
 45
0.0
 46
0.0
 47
0.0
 48
0.0
 49
0.0
140
0.0
141
0.0
142
1.0
143
1.0
 70
   688
 72
     0
 73
     0
 74
     5
  7

 75
    16
147
1.0
148
0.0
149
0.0
100
AcDbLayout
  1
Layout2
 70
     1
 71
     2
 10
0.0
 20
0.0
 11
0.0
 21
0.0
 12
0.0
 22
0.0
 32
0.0
 14
0.0
 24
0.0
 34
0.0
 15
0.0
 25
0.0
 35
0.0
146
0.0
 13
0.0
 23
0.0
 33
0.0
 16
1.0
 26
0.0
 36
0.0
 17
0.0
 27
1.0
 37
0.0
 76
     0
330
23
  0
LAYOUT
  5
22
102
{ACAD_REACTORS
330
1A
102
}
330
1A
100
AcDbPlotSettings
  1

  2

  4

  6

 40
0.0
 41
0.0
 42
0.0
 43
0.0
 44
0.0
 45
0.0
 46
0.0
 47
0.0
 48
0.0
 49
0.0
140
0.0
141
0.0
142
1.0
143
1.0
 70
  1712
 72
     0
 73
     0
 74
     0
  7

 75
     0
147
1.0
148
0.0
149
0.0
100
AcDbLayout
  1
Model
 70
     1
 71
     0
 10
0.0
 20
0.0
 11
0.0
 21
0.0
 12
0.0
 22
0.0
 32
0.0
 14
0.0
 24
0.0
 34
0.0
 15
210.0
 25
297.0
 35
0.0
146
0.0
 13
0.0
 23
0.0
 33
0.0
 16
1.0
 26
0.0
 36
0.0
 17
0.0
 27
1.0
 37
0.0
 76
     0
330
1F
  0
MLINESTYLE
  5
18
102
{ACAD_REACTORS
330
17
102
}
330
17
100
AcDbMlineStyle
  2
Standard
 70
     0
  3

 62
   256
 51
90.0
 52
90.0
 71
     2
 49
0.5
 62
   256
  6
BYLAYER
 49
-0.5
 62
   256
  6
BYLAYER
  0
ACDBPLACEHOLDER
  5
F
102
{ACAD_REACTORS
330
E
102
}
330
E
  0
ENDSEC
  0
EOF
