  0
SECTION
  2
HEADER
  9
$EXTMAX
 10
1.2182922
 20
274.528
 30
0
  9
$EXTMIN
 10
-177.2301
 20
-1.0560455
 30
0
  9
$LIMMAX
 10
1.2182922
 20
274.528
  9
$LIMMIN
 10
-177.2301
 20
-1.0560455
  9
$PLIMMAX
 10
1.2182922
 20
274.528
  9
$PLIMMIN
 10
-177.2301
 20
-1.0560455
  9
$PEXTMAX
 10
1.2182922
 20
274.528
 30
0
  9
$PEXTMIN
 10
-177.2301
 20
-1.0560455
 30
0
  9
$TEXTSIZE
 40
3.2
  9
$DIMSHO
 70
     0
  9
$DIMASZ
 40
1.0
  9
$DIMTAD
 70
     1
  9
$DIMTIH
 70
     0
  9
$DIMTOH
 70
     0
  9
$DIMEXE
 40
2.54
  9
$DIMEXO
 40
2.54
  9
$DIMTVP
 40
1.0
  9
$DIMSAH
 70
     1
  9
$DIMDLE
 40
0.0
  9
$DIMTXT
 40
3.2
  9
$DIMGAP
 40
1.6
  0
ENDSEC
  0
SECTION
  2
TABLES
  0
TABLE
  2
LTYPE
 70
     39
  0
LTYPE
  2
CONTINUOUS
 70
    64
  3
Solid line
 72
    65
 73
     0
 40
0.0
  0
LTYPE
  2
ACAD_ISO02W100
 70
     0
  3
ISO dash __ __ __ __ __ __ __ __ __ __ __ __ __
 72
    65
 73
     2
 40
15.0
 49
12.0
 49
-3.0
  0
LTYPE
  2
ACAD_ISO03W100
 70
     0
  3
ISO dash space __    __    __    __    __    __
 72
    65
 73
     2
 40
30.0
 49
12.0
 49
-18.0
  0
LTYPE
  2
ACAD_ISO04W100
 70
     0
  3
ISO long-dash dot ____ . ____ . ____ . ____ . _
 72
    65
 73
     4
 40
30.0
 49
24.0
 49
-3.0
 49
0.0
 49
-3.0
  0
LTYPE
  2
ACAD_ISO05W100
 70
     0
  3
ISO long-dash double-dot ____ .. ____ .. ____ .
 72
    65
 73
     6
 40
33.0
 49
24.0
 49
-3.0
 49
0.0
 49
-3.0
 49
0.0
 49
-3.0
  0
LTYPE
  2
ACAD_ISO06W100
 70
     0
  3
ISO long-dash triple-dot ____ ... ____ ... ____
 72
    65
 73
     8
 40
36.0
 49
24.0
 49
-3.0
 49
0.0
 49
-3.0
 49
0.0
 49
-3.0
 49
0.0
 49
-3.0
  0
LTYPE
  2
ACAD_ISO07W100
 70
     0
  3
ISO dot . . . . . . . . . . . . . . . . . . . .
 72
    65
 73
     2
 40
3.0
 49
0.0
 49
-3.0
  0
LTYPE
  2
ACAD_ISO08W100
 70
     0
  3
ISO long-dash short-dash ____ __ ____ __ ____ _
 72
    65
 73
     4
 40
36.0
 49
24.0
 49
-3.0
 49
6.0
 49
-3.0
  0
LTYPE
  2
ACAD_ISO09W100
 70
     0
  3
ISO long-dash double-short-dash ____ __ __ ____
 72
    65
 73
     6
 40
45.0
 49
24.0
 49
-3.0
 49
6.0
 49
-3.0
 49
6.0
 49
-3.0
  0
LTYPE
  2
ACAD_ISO10W100
 70
     0
  3
ISO dash dot __ . __ . __ . __ . __ . __ . __ .
 72
    65
 73
     4
 40
18.0
 49
12.0
 49
-3.0
 49
0.0
 49
-3.0
  0
LTYPE
  2
ACAD_ISO11W100
 70
     0
  3
ISO double-dash dot __ __ . __ __ . __ __ . __ 
 72
    65
 73
     6
 40
33.0
 49
12.0
 49
-3.0
 49
12.0
 49
-3.0
 49
0.0
 49
-3.0
  0
LTYPE
  2
ACAD_ISO12W100
 70
     0
  3
ISO dash double-dot __ . . __ . . __ . . __ . .
 72
    65
 73
     6
 40
21.0
 49
12.0
 49
-3.0
 49
0.0
 49
-3.0
 49
0.0
 49
-3.0
  0
LTYPE
  2
ACAD_ISO13W100
 70
     0
  3
ISO double-dash double-dot __ __ . . __ __ . . 
 72
    65
 73
     8
 40
36.0
 49
12.0
 49
-3.0
 49
12.0
 49
-3.0
 49
0.0
 49
-3.0
 49
0.0
 49
-3.0
  0
LTYPE
  2
ACAD_ISO14W100
 70
     0
  3
ISO dash triple-dot __ . . . __ . . . __ . . . 
 72
    65
 73
     8
 40
24.0
 49
12.0
 49
-3.0
 49
0.0
 49
-3.0
 49
0.0
 49
-3.0
 49
0.0
 49
-3.0
  0
LTYPE
  2
ACAD_ISO15W100
 70
     0
  3
ISO double-dash triple-dot __ __ . . . __ __ . 
 72
    65
 73
    10
 40
39.0
 49
12.0
 49
-3.0
 49
12.0
 49
-3.0
 49
0.0
 49
-3.0
 49
0.0
 49
-3.0
 49
0.0
 49
-3.0
  0
LTYPE
  2
BORDER
 70
    64
  3
Border __ __ . __ __ . __ __ . __ __ . __ __ .
 72
    65
 73
     6
 40
3.5
 49
1.0
 49
-0.5
 49
1.0
 49
-0.5
 49
0.0
 49
-0.5
  0
LTYPE
  2
BORDER2
 70
    64
  3
Border (.5x) __.__.__.__.__.__.__.__.__.__.__.
 72
    65
 73
     6
 40
1.75
 49
0.5
 49
-0.25
 49
0.5
 49
-0.25
 49
0.0
 49
-0.25
  0
LTYPE
  2
BORDERX2
 70
    64
  3
Border (2x) ____  ____  .  ____  ____  .  ___
 72
    65
 73
     6
 40
7.0
 49
2.0
 49
-1.0
 49
2.0
 49
-1.0
 49
0.0
 49
-1.0
  0
LTYPE
  2
CENTER
 70
    64
  3
Center ____ _ ____ _ ____ _ ____ _ ____ _ ____
 72
    65
 73
     4
 40
12.0
 49
7.5
 49
-1.5
 49
1.5
 49
-1.5
  0
LTYPE
  2
CENTER2
 70
    64
  3
Center (.5x) ___ _ ___ _ ___ _ ___ _ ___ _ ___
 72
    65
 73
     4
 40
6.0
 49
3.75
 49
-0.75
 49
0.75
 49
-0.75
  0
LTYPE
  2
CENTERX2
 70
    64
  3
Center (2x) ________  __  ________  __  _____
 72
    65
 73
     4
 40
24.0
 49
15.0
 49
-3.0
 49
3.0
 49
-3.0
  0
LTYPE
  2
DASHDOT
 70
    64
  3
Dash dot __ . __ . __ . __ . __ . __ . __ . __
 72
    65
 73
     4
 40
6.0
 49
3.0
 49
-1.5
 49
0.0
 49
-1.5
  0
LTYPE
  2
DASHDOT2
 70
    64
  3
Dash dot (.5x) _._._._._._._._._._._._._._._.
 72
    65
 73
     4
 40
3.0
 49
1.5
 49
-0.75
 49
0.0
 49
-0.75
  0
LTYPE
  2
DASHDOTX2
 70
    64
  3
Dash dot (2x) ____  .  ____  .  ____  .  ___
 72
    65
 73
     4
 40
12.0
 49
6.0
 49
-3.0
 49
0.0
 49
-3.0
  0
LTYPE
  2
DASHED
 70
    64
  3
Dashed __ __ __ __ __ __ __ __ __ __ __ __ __ _
 72
    65
 73
     2
 40
4.5
 49
3.0
 49
-1.5
  0
LTYPE
  2
DASHED2
 70
    64
  3
Dashed (.5x) _ _ _ _ _ _ _ _ _ _ _ _ _ _ _ _ _
 72
    65
 73
     2
 40
2.25
 49
1.5
 49
-0.75
  0
LTYPE
  2
DASHEDX2
 70
    64
  3
Dashed (2x) ____  ____  ____  ____  ____  ___
 72
    65
 73
     2
 40
9.0
 49
6.0
 49
-3.0
  0
LTYPE
  2
DIVIDE
 70
    64
  3
Divide ____ . . ____ . . ____ . . ____ . . ____
 72
    65
 73
     6
 40
7.5
 49
3.0
 49
-1.5
 49
0.0
 49
-1.5
 49
0.0
 49
-1.5
  0
LTYPE
  2
DIVIDE2
 70
    64
  3
Divide (.5x) __..__..__..__..__..__..__..__.._
 72
    65
 73
     6
 40
3.75
 49
1.5
 49
-0.75
 49
0.0
 49
-0.75
 49
0.0
 49
-0.75
  0
LTYPE
  2
DIVIDEX2
 70
    64
  3
Divide (2x) ________  .  .  ________  .  .  _
 72
    65
 73
     6
 40
15.0
 49
6.0
 49
-3.0
 49
0.0
 49
-3.0
 49
0.0
 49
-3.0
  0
LTYPE
  2
DOT
 70
    64
  3
Dot . . . . . . . . . . . . . . . . . . . . . .
 72
    65
 73
     2
 40
1.5
 49
0.0
 49
-1.5
  0
LTYPE
  2
DOT2
 70
    64
  3
Dot (.5x) .....................................
 72
    65
 73
     2
 40
0.75
 49
0.0
 49
-0.75
  0
LTYPE
  2
DOTX2
 70
    64
  3
Dot (2x) .  .  .  .  .  .  .  .  .  .  .  .  . 
 72
    65
 73
     2
 40
3.0
 49
0.0
 49
-3.0
  0
LTYPE
  2
HIDDEN
 70
    64
  3
Hidden __ __ __ __ __ __ __ __ __ __ __ __ __ _
 72
    65
 73
     2
 40
4.5
 49
3.0
 49
-1.5
  0
LTYPE
  2
HIDDEN2
 70
    64
  3
Hidden (.5x) _ _ _ _ _ _ _ _ _ _ _ _ _ _ _ _ _
 72
    65
 73
     2
 40
2.25
 49
1.5
 49
-0.75
  0
LTYPE
  2
HIDDENX2
 70
    64
  3
Hidden (2x) ____ ____ ____ ____ ____ ____ ____
 72
    65
 73
     2
 40
9.0
 49
6.0
 49
-3.0
  0
LTYPE
  2
PHANTOM
 70
    64
  3
Phantom ______  __  __  ______  __  __  ______
 72
    65
 73
     6
 40
15.0
 49
7.5
 49
-1.5
 49
1.5
 49
-1.5
 49
1.5
 49
-1.5
  0
LTYPE
  2
PHANTOM2
 70
    64
  3
Phantom (.5x) ___ _ _ ___ _ _ ___ _ _ ___ _ _
 72
    65
 73
     6
 40
7.5
 49
3.75
 49
-0.75
 49
0.75
 49
-0.75
 49
0.75
 49
-0.75
  0
LTYPE
  2
PHANTOMX2
 70
    64
  3
Phantom (2x) ____________    ____    ____   _
 72
    65
 73
     6
 40
30.0
 49
15.0
 49
-3.0
 49
3.0
 49
-3.0
 49
3.0
 49
-3.0
  0
ENDTAB
  0
TABLE
  2
LAYER
 70
     1
  0
LAYER
  2
0
 70
     0
 62
     7
  6
CONTINUOUS
  0
ENDTAB
  0
TABLE
  2
STYLE
 70
     1
  0
STYLE
  2
STANDARD
 70
     0
 40
0.0
 41
1.0
 50
0.0
 71
     0
 42
0.2
  3
txt
  4
BIGFONT
  0
ENDTAB
  0
TABLE
  2
DIMSTYLE
 70
     0
  0
ENDTAB
  0
ENDSEC
  0
SECTION
  2
BLOCKS
  0
BLOCK
  8
0
  2
KOZU0001
 70
    64
 10
0
 20
0
  0
LINE
  8
0
  6
CONTINUOUS
 62
     7
 10
0
 20
0
 11
-5.5733668
 21
11.6885
  0
LINE
  8
0
  6
CONTINUOUS
 62
     7
 10
0
 20
0
 11
-2.1938389
 21
2.2775141
  0
LINE
  8
0
  6
CONTINUOUS
 62
     7
 10
0
 20
0
 11
-0.38856262
 21
3.1383146
  0
TEXT
  8
0
  6
CONTINUOUS
 62
     7
 10
-26.450566
 20
12.488512
 40
3.2
 41
0.84741101
  1
２－%%C３．２
  0
LINE
  8
0
  6
CONTINUOUS
 62
     7
 10
0
 20
0
 11
-5.5733668
 21
11.6885
  0
LINE
  8
0
  6
CONTINUOUS
 62
     7
 10
-5.5733661
 20
11.688512
 11
-28.278566
 21
11.688512
  0
ENDBLK
  8
0
  0
BLOCK
  8
0
  2
KOZU0002
 70
    64
 10
0
 20
0
  0
LINE
  8
0
  6
CONTINUOUS
 62
     7
 10
0
 20
0
 11
4.5895703
 21
-18.137355
  0
LINE
  8
0
  6
CONTINUOUS
 62
     7
 10
0
 20
0
 11
1.7053832
 21
-2.6630186
  0
LINE
  8
0
  6
CONTINUOUS
 62
     7
 10
0
 20
0
 11
-0.23350459
 21
-3.1536448
  0
TEXT
  8
0
  6
CONTINUOUS
 62
     7
 10
8.3420222
 20
-17.33735
 40
3.2
 41
0.84448347
  1
Ｍ５ｘ０．８（両側）
  0
LINE
  8
0
  6
CONTINUOUS
 62
     7
 10
0
 20
0
 11
4.5895703
 21
-18.137355
  0
LINE
  8
0
  6
CONTINUOUS
 62
     7
 10
4.589567
 20
-18.13735
 11
41.256025
 21
-18.13735
  0
ENDBLK
  8
0
  0
ENDSEC
  0
SECTION
  2
ENTITIES
  0
LINE
  8
0
  6
CONTINUOUS
 62
     7
 10
-131.88144
 20
145.72
 11
-123.88144
 21
145.72
  0
LINE
  8
0
  6
CONTINUOUS
 62
     7
 10
-132.88144
 20
138.22
 11
-132.88144
 21
136.72
  0
LINE
  8
0
  6
CONTINUOUS
 62
     7
 10
-122.88144
 20
138.22
 11
-122.88144
 21
136.72
  0
LINE
  8
0
  6
CONTINUOUS
 62
     7
 10
-132.88144
 20
138.22
 11
-122.88144
 21
138.22
  0
LINE
  8
0
  6
CONTINUOUS
 62
     7
 10
-132.38144
 20
145.22
 11
-132.38144
 21
138.72
  0
LINE
  8
0
  6
CONTINUOUS
 62
     7
 10
-123.38144
 20
145.22
 11
-123.38144
 21
138.72
  0
LINE
  8
0
  6
CONTINUOUS
 62
     7
 10
-131.88144
 20
145.72001
 11
-132.38144
 21
145.22001
  0
LINE
  8
0
  6
CONTINUOUS
 62
     7
 10
-123.88144
 20
145.72
 11
-123.38144
 21
145.22
  0
LINE
  8
0
  6
CONTINUOUS
 62
     7
 10
-132.38145
 20
138.72001
 11
-131.88145
 21
138.22001
  0
LINE
  8
0
  6
CONTINUOUS
 62
     7
 10
-123.38144
 20
138.72
 11
-123.88144
 21
138.22
  0
LINE
  8
0
  6
CONTINUOUS
 62
     7
 10
-132.38144
 20
145.22
 11
-123.38144
 21
145.22
  0
LINE
  8
0
  6
CONTINUOUS
 62
     7
 10
-132.38144
 20
138.72
 11
-123.38144
 21
138.72
  0
LINE
  8
0
  6
CONTINUOUS
 62
     7
 10
-124.88144
 20
147.22
 11
-124.88144
 21
145.72
  0
LINE
  8
0
  6
CONTINUOUS
 62
     7
 10
-130.88144
 20
147.22
 11
-130.88144
 21
145.72
  0
LINE
  8
0
  6
CONTINUOUS
 62
     7
 10
-130.88144
 20
147.22
 11
-130.38144
 21
147.72
  0
LINE
  8
0
  6
CONTINUOUS
 62
     7
 10
-125.38145
 20
147.72001
 11
-124.88145
 21
147.22001
  0
LINE
  8
0
  6
CONTINUOUS
 62
     7
 10
-130.38144
 20
147.72
 11
-125.38144
 21
147.72
  0
LINE
  8
0
  6
CONTINUOUS
 62
     7
 10
-121.88144
 20
136.72
 11
-121.88144
 21
121.72
  0
LINE
  8
0
  6
CONTINUOUS
 62
     7
 10
-133.88144
 20
136.72
 11
-133.88144
 21
121.72
  0
LINE
  8
0
  6
CONTINUOUS
 62
     7
 10
-133.88144
 20
121.72
 11
-121.88144
 21
121.72
  0
LINE
  8
0
  6
CONTINUOUS
 62
     7
 10
-133.88144
 20
136.72
 11
-121.88144
 21
136.72
  0
LINE
  8
0
  6
CENTER
 62
     7
 10
-135.92076
 20
132.72
 11
-119.16383
 21
132.72
  0
LINE
  8
0
  6
CENTER
 62
     7
 10
-127.88144
 20
150.69612
 11
-127.88144
 21
119.68
  0
LINE
  8
0
  6
CENTER
 62
     7
 10
-134.92143
 20
126.72
 11
-120.84145
 21
126.72
  0
LINE
  8
0
  6
CONTINUOUS
 62
     7
 10
-51.965004
 20
136.72
 11
-51.965004
 21
121.72
  0
LINE
  8
0
  6
CONTINUOUS
 62
     7
 10
-70.965004
 20
121.72
 11
-51.965004
 21
121.72
  0
LINE
  8
0
  6
CONTINUOUS
 62
     7
 10
-70.965004
 20
136.72
 11
-70.965004
 21
121.72
  0
LINE
  8
0
  6
CONTINUOUS
 62
     7
 10
-70.965004
 20
136.72
 11
-51.965004
 21
136.72
  0
LINE
  8
0
  6
CENTER
 62
     7
 10
-64.465004
 20
132.72
 11
-69.465004
 21
132.72
  0
LINE
  8
0
  6
CENTER
 62
     7
 10
-66.965004
 20
135.22
 11
-66.965004
 21
130.22
  0
LINE
  8
0
  6
CENTER
 62
     7
 10
-52.465004
 20
132.72
 11
-57.465004
 21
132.72
  0
LINE
  8
0
  6
CENTER
 62
     7
 10
-54.965004
 20
135.22
 11
-54.965004
 21
130.22
  0
LINE
  8
0
  6
CENTER
 62
     7
 10
-49.47258
 20
126.72
 11
-55.62265
 21
126.72
  0
LINE
  8
0
  6
CONTINUOUS
 62
     7
 10
-63.965004
 20
145.72
 11
-55.965004
 21
145.72
  0
LINE
  8
0
  6
CENTER
 62
     7
 10
-59.965004
 20
150.69612
 11
-59.965004
 21
134.05476
  0
LINE
  8
0
  6
CONTINUOUS
 62
     7
 10
-64.965004
 20
138.22
 11
-64.965004
 21
136.72
  0
LINE
  8
0
  6
CONTINUOUS
 62
     7
 10
-54.965004
 20
138.22
 11
-54.965004
 21
136.72
  0
LINE
  8
0
  6
CONTINUOUS
 62
     7
 10
-64.965004
 20
138.22
 11
-54.965004
 21
138.22
  0
LINE
  8
0
  6
CONTINUOUS
 62
     7
 10
-64.465004
 20
145.22
 11
-64.465004
 21
138.72
  0
LINE
  8
0
  6
CONTINUOUS
 62
     7
 10
-55.465004
 20
145.22
 11
-55.465004
 21
138.72
  0
LINE
  8
0
  6
CONTINUOUS
 62
     7
 10
-63.965
 20
145.72
 11
-64.465001
 21
145.22
  0
LINE
  8
0
  6
CONTINUOUS
 62
     7
 10
-55.964994
 20
145.72001
 11
-55.464998
 21
145.22
  0
LINE
  8
0
  6
CONTINUOUS
 62
     7
 10
-64.465009
 20
138.72
 11
-63.965008
 21
138.22
  0
LINE
  8
0
  6
CONTINUOUS
 62
     7
 10
-55.465004
 20
138.72001
 11
-55.965005
 21
138.22001
  0
LINE
  8
0
  6
CONTINUOUS
 62
     7
 10
-64.465004
 20
145.22
 11
-55.465004
 21
145.22
  0
LINE
  8
0
  6
CONTINUOUS
 62
     7
 10
-64.465004
 20
138.72
 11
-55.465004
 21
138.72
  0
LINE
  8
0
  6
CONTINUOUS
 62
     7
 10
-62.465004
 20
147.72
 11
-60.465004
 21
147.72
  0
LINE
  8
0
  6
CONTINUOUS
 62
     7
 10
-56.965004
 20
147.22
 11
-56.965004
 21
145.72
  0
LINE
  8
0
  6
CONTINUOUS
 62
     7
 10
-62.965004
 20
147.22
 11
-62.965004
 21
145.72
  0
LINE
  8
0
  6
CONTINUOUS
 62
     7
 10
-62.965
 20
147.21999
 11
-62.464998
 21
147.72
  0
LINE
  8
0
  6
CONTINUOUS
 62
     7
 10
-57.465005
 20
147.72
 11
-56.965004
 21
147.22
  0
LINE
  8
0
  6
CONTINUOUS
 62
     7
 10
-60.465004
 20
147.72
 11
-60.465004
 21
145.72
  0
LINE
  8
0
  6
CONTINUOUS
 62
     7
 10
-59.465004
 20
147.72
 11
-59.465004
 21
145.72
  0
LINE
  8
0
  6
CONTINUOUS
 62
     7
 10
-59.465004
 20
147.72
 11
-57.465004
 21
147.72
  0
LINE
  8
0
  6
CONTINUOUS
 62
     7
 10
-74.965004
 20
130.72
 11
-74.965004
 21
122.72
  0
LINE
  8
0
  6
CENTER
 62
     7
 10
-77.11171
 20
126.72
 11
-69.369858
 21
126.72
  0
LINE
  8
0
  6
CONTINUOUS
 62
     7
 10
-74.465004
 20
131.22
 11
-70.965004
 21
131.22
  0
LINE
  8
0
  6
CONTINUOUS
 62
     7
 10
-74.465004
 20
122.22
 11
-70.965004
 21
122.22
  0
LINE
  8
0
  6
CONTINUOUS
 62
     7
 10
-74.465003
 20
122.22
 11
-74.965004
 21
122.72
  0
LINE
  8
0
  6
CONTINUOUS
 62
     7
 10
-74.965009
 20
130.72001
 11
-74.465008
 21
131.22001
  0
LINE
  8
0
  6
CONTINUOUS
 62
     7
 10
-74.465004
 20
131.22
 11
-74.465004
 21
122.22
  0
LINE
  8
0
  6
DASHED
 62
     7
 10
-74.965004
 20
129.22
 11
-70.965004
 21
129.22
  0
LINE
  8
0
  6
DASHED
 62
     7
 10
-74.965004
 20
124.22
 11
-70.965004
 21
124.22
  0
LINE
  8
0
  6
DASHED
 62
     7
 10
-74.965004
 20
124.72
 11
-70.965004
 21
124.72
  0
LINE
  8
0
  6
DASHED
 62
     7
 10
-74.965004
 20
128.72
 11
-70.965004
 21
128.72
  0
LINE
  8
0
  6
DASHED
 62
     7
 10
-51.965004
 20
124.72
 11
-54.965004
 21
124.72
  0
LINE
  8
0
  6
DASHED
 62
     7
 10
-51.965004
 20
124.22
 11
-54.965004
 21
124.22
  0
LINE
  8
0
  6
DASHED
 62
     7
 10
-51.965004
 20
128.72
 11
-54.965004
 21
128.72
  0
LINE
  8
0
  6
DASHED
 62
     7
 10
-51.965004
 20
129.22
 11
-54.965004
 21
129.22
  0
LINE
  8
0
  6
CONTINUOUS
 62
     7
 10
-74.965004
 20
183.84792
 11
-74.965004
 21
175.84792
  0
LINE
  8
0
  6
CENTER
 62
     7
 10
-77.11171
 20
179.84792
 11
-49.47258
 21
179.84792
  0
LINE
  8
0
  6
CONTINUOUS
 62
     7
 10
-74.465004
 20
184.34792
 11
-70.965004
 21
184.34792
  0
LINE
  8
0
  6
CONTINUOUS
 62
     7
 10
-74.465004
 20
175.34792
 11
-70.965004
 21
175.34792
  0
LINE
  8
0
  6
CONTINUOUS
 62
     7
 10
-74.465003
 20
175.34792
 11
-74.965004
 21
175.84792
  0
LINE
  8
0
  6
CONTINUOUS
 62
     7
 10
-74.965009
 20
183.84793
 11
-74.465016
 21
184.34792
  0
LINE
  8
0
  6
CONTINUOUS
 62
     7
 10
-74.465004
 20
184.34792
 11
-74.465004
 21
175.34792
  0
LINE
  8
0
  6
CONTINUOUS
 62
     7
 10
-51.965004
 20
185.84792
 11
-51.965004
 21
173.84792
  0
LINE
  8
0
  6
CONTINUOUS
 62
     7
 10
-70.965004
 20
173.84792
 11
-51.965004
 21
173.84792
  0
LINE
  8
0
  6
CONTINUOUS
 62
     7
 10
-70.965004
 20
185.84792
 11
-51.965004
 21
185.84792
  0
LINE
  8
0
  6
CONTINUOUS
 62
     7
 10
-70.965004
 20
185.84792
 11
-70.965004
 21
173.84792
  0
LINE
  8
0
  6
CONTINUOUS
 62
     7
 10
-60.465004
 20
182.80595
 11
-60.465004
 21
176.88988
  0
LINE
  8
0
  6
CONTINUOUS
 62
     7
 10
-59.465004
 20
182.80595
 11
-59.465004
 21
176.88988
  0
LINE
  8
0
  6
DASHED
 62
     7
 10
-74.965004
 20
177.34792
 11
-70.965004
 21
177.34792
  0
LINE
  8
0
  6
DASHED
 62
     7
 10
-74.965004
 20
177.84792
 11
-70.965004
 21
177.84792
  0
LINE
  8
0
  6
DASHED
 62
     7
 10
-74.965004
 20
181.84792
 11
-70.965004
 21
181.84792
  0
LINE
  8
0
  6
DASHED
 62
     7
 10
-74.965004
 20
182.34792
 11
-70.965004
 21
182.34792
  0
LINE
  8
0
  6
DASHED
 62
     7
 10
-51.965004
 20
177.84792
 11
-54.965004
 21
177.84792
  0
LINE
  8
0
  6
DASHED
 62
     7
 10
-51.965004
 20
177.34792
 11
-54.965004
 21
177.34792
  0
LINE
  8
0
  6
DASHED
 62
     7
 10
-51.965004
 20
181.84792
 11
-54.965004
 21
181.84792
  0
LINE
  8
0
  6
DASHED
 62
     7
 10
-51.965004
 20
182.34792
 11
-54.965004
 21
182.34792
  0
LINE
  8
0
  6
CENTER
 62
     7
 10
-59.965004
 20
190.39885
 11
-59.965004
 21
169.50038
  0
LINE
  8
0
  6
CONTINUOUS
 62
     7
 10
-63.965004
 20
124.72
 11
-61.965004
 21
124.72
  0
LINE
  8
0
  6
CONTINUOUS
 62
     7
 10
-57.965004
 20
128.72
 11
-57.965004
 21
124.72
  0
LINE
  8
0
  6
CONTINUOUS
 62
     7
 10
-63.965004
 20
128.72
 11
-63.965004
 21
124.72
  0
LINE
  8
0
  6
CONTINUOUS
 62
     7
 10
-64.965004
 20
128.72
 11
-56.965004
 21
128.72
  0
LINE
  8
0
  6
CONTINUOUS
 62
     7
 10
-59.659595
 20
124.72
 11
-57.965004
 21
124.72
  0
LINE
  8
0
  6
CONTINUOUS
 62
     7
 10
-59.550782
 20
130.13421
 11
-62.379207
 21
127.30578
  0
LINE
  8
0
  6
CONTINUOUS
 62
     7
 10
-60.369949
 20
129.56064
 11
-59.550797
 21
130.13421
  0
LINE
  8
0
  6
CONTINUOUS
 62
     7
 10
-60.124369
 20
129.31507
 11
-59.550792
 21
130.13422
  0
LINE
  8
0
  6
CONTINUOUS
 62
     7
 10
-59.659595
 20
124.72001
 11
-60.965001
 21
123.16428
  0
LINE
  8
0
  6
CONTINUOUS
 62
     7
 10
-59.659605
 20
124.72
 11
-60.965004
 21
126.27571
  0
LINE
  8
0
  6
CONTINUOUS
 62
     7
 10
-124.1607
 20
138.72
 11
-123.38144
 21
139.49926
  0
LINE
  8
0
  6
CONTINUOUS
 62
     7
 10
-126.40575
 20
138.71999
 11
-123.38143
 21
141.74432
  0
LINE
  8
0
  6
CONTINUOUS
 62
     7
 10
-128.65081
 20
138.72
 11
-123.38143
 21
143.98939
  0
LINE
  8
0
  6
CONTINUOUS
 62
     7
 10
-130.89588
 20
138.72001
 11
-124.3959
 21
145.22001
  0
LINE
  8
0
  6
CONTINUOUS
 62
     7
 10
-132.38144
 20
139.4795
 11
-126.64096
 21
145.21999
  0
LINE
  8
0
  6
CONTINUOUS
 62
     7
 10
-132.38144
 20
141.72458
 11
-128.88602
 21
145.22
  0
LINE
  8
0
  6
CONTINUOUS
 62
     7
 10
-132.38144
 20
143.96964
 11
-131.13108
 21
145.22
  0
LINE
  8
0
  6
CONTINUOUS
 62
     7
 10
-123.38144
 20
143.39851
 11
-125.20292
 21
145.22
  0
LINE
  8
0
  6
CONTINUOUS
 62
     7
 10
-123.38144
 20
141.15345
 11
-127.448
 21
145.22
  0
LINE
  8
0
  6
CONTINUOUS
 62
     7
 10
-123.38144
 20
138.90839
 11
-129.69308
 21
145.22
  0
LINE
  8
0
  6
CONTINUOUS
 62
     7
 10
-125.43811
 20
138.71999
 11
-131.93812
 21
145.22
  0
LINE
  8
0
  6
CONTINUOUS
 62
     7
 10
-127.68319
 20
138.72
 11
-132.38144
 21
143.41825
  0
LINE
  8
0
  6
CONTINUOUS
 62
     7
 10
-129.92824
 20
138.72
 11
-132.38144
 21
141.17318
  0
LINE
  8
0
  6
CONTINUOUS
 62
     7
 10
-132.17332
 20
138.72
 11
-132.38144
 21
138.92812
  0
LINE
  8
0
  6
CONTINUOUS
 62
     7
 10
-56.60329
 20
138.72
 11
-55.465004
 21
139.85829
  0
LINE
  8
0
  6
CONTINUOUS
 62
     7
 10
-58.848357
 20
138.72
 11
-55.465008
 21
142.10337
  0
LINE
  8
0
  6
CONTINUOUS
 62
     7
 10
-61.093411
 20
138.72
 11
-55.465
 21
144.34842
  0
LINE
  8
0
  6
CONTINUOUS
 62
     7
 10
-63.338476
 20
138.72
 11
-56.838489
 21
145.22
  0
LINE
  8
0
  6
CONTINUOUS
 62
     7
 10
-64.464999
 20
139.83854
 11
-59.083544
 21
145.22
  0
LINE
  8
0
  6
CONTINUOUS
 62
     7
 10
-64.465002
 20
142.0836
 11
-61.328612
 21
145.22
  0
LINE
  8
0
  6
CONTINUOUS
 62
     7
 10
-64.465001
 20
144.32867
 11
-63.573672
 21
145.22
  0
LINE
  8
0
  6
CONTINUOUS
 62
     7
 10
-55.465004
 20
143.03966
 11
-57.645346
 21
145.22
  0
LINE
  8
0
  6
CONTINUOUS
 62
     7
 10
-55.465003
 20
140.7946
 11
-59.890414
 21
145.22
  0
LINE
  8
0
  6
CONTINUOUS
 62
     7
 10
-55.635469
 20
138.72
 11
-62.135483
 21
145.22
  0
LINE
  8
0
  6
CONTINUOUS
 62
     7
 10
-57.880538
 20
138.72
 11
-64.380552
 21
145.22
  0
LINE
  8
0
  6
CONTINUOUS
 62
     7
 10
-60.125603
 20
138.72
 11
-64.465011
 21
143.05939
  0
LINE
  8
0
  6
CONTINUOUS
 62
     7
 10
-62.370672
 20
138.72001
 11
-64.465
 21
140.81433
  0
LINE
  8
0
  6
CONTINUOUS
 62
     7
 10
-61.800003
 20
38.5
 11
0
 21
38.5
  0
LINE
  8
0
  6
CONTINUOUS
 62
     7
 10
-61.800003
 20
12.5
 11
0
 21
12.5
  0
LINE
  8
0
  6
CONTINUOUS
 62
     7
 10
-61.800003
 20
25
 11
0
 21
25
  0
LINE
  8
0
  6
CONTINUOUS
 62
     7
 10
-61.800003
 20
38.5
 11
-61.800003
 21
0
  0
LINE
  8
0
  6
CONTINUOUS
 62
     7
 10
-177
 20
-0.19999981
 11
0
 21
-0.19999981
  0
LINE
  8
0
  6
CONTINUOUS
 62
     7
 10
-177
 20
274.29999
 11
-177
 21
-0.19999981
  0
LINE
  8
0
  6
CONTINUOUS
 62
     7
 10
-177
 20
-0.39999962
 11
-1.6000032
 21
-0.39999962
  0
LINE
  8
0
  6
CONTINUOUS
 62
     7
 10
-177.2
 20
274.29999
 11
-177.2
 21
-0.19999981
  0
LINE
  8
0
  6
CONTINUOUS
 62
     7
 10
0
 20
274.29999
 11
0
 21
0
  0
LINE
  8
0
  6
CONTINUOUS
 62
     7
 10
-0.20000005
 20
274.29999
 11
-0.20000005
 21
0
  0
LINE
  8
0
  6
CONTINUOUS
 62
     7
 10
-177
 20
274.29999
 11
0
 21
274.29999
  0
LINE
  8
0
  6
CONTINUOUS
 62
     7
 10
-177
 20
274.5
 11
0
 21
274.5
  0
LINE
  8
0
  6
CONTINUOUS
 62
     7
 10
-177.2
 20
274.29999
 11
-177.2
 21
-0.19999981
  0
CIRCLE
  8
0
  6
CONTINUOUS
 62
     7
 10
-127.88144
 20
126.72
 40
4.5
  0
CIRCLE
  8
0
  6
CONTINUOUS
 62
     7
 10
-127.88144
 20
126.72
 40
2.5
  0
CIRCLE
  8
0
  6
CONTINUOUS
 62
     7
 10
-127.88144
 20
126.72
 40
2
  0
CIRCLE
  8
0
  6
CONTINUOUS
 62
     7
 10
-66.965004
 20
132.72
 40
1.6
  0
CIRCLE
  8
0
  6
CONTINUOUS
 62
     7
 10
-54.965004
 20
132.72
 40
1.6
  0
ARC
  8
0
  6
CONTINUOUS
 62
     7
 10
-59.965004
 20
179.84792
 40
2.5
 50
101.53696
 51
258.46305
  0
CIRCLE
  8
0
  6
CONTINUOUS
 62
     7
 10
-59.965004
 20
179.84792
 40
5
  0
CIRCLE
  8
0
  6
CONTINUOUS
 62
     7
 10
-59.965004
 20
179.84792
 40
4.5
  0
CIRCLE
  8
0
  6
CONTINUOUS
 62
     7
 10
-59.965004
 20
179.84792
 40
3
  0
ARC
  8
0
  6
CONTINUOUS
 62
     7
 10
-59.965004
 20
179.84792
 40
2.5
 50
281.53696
 51
78.463041
  0
CIRCLE
  8
0
  6
CONTINUOUS
 62
     7
 10
-60.965004
 20
124.72
 40
1
  0
ARC
  8
0
  6
CONTINUOUS
 62
     7
 10
-60.965004
 20
139.22
 40
10
 50
255.52249
 51
284.47751
  0
ARC
  8
0
  6
CONTINUOUS
 62
     7
 10
-60.965004
 20
118.22
 40
10
 50
75.522488
 51
104.47751
  0
TEXT
  8
0
  6
CONTINUOUS
 62
     7
 10
-44.999983
 20
3.5250001
 40
5.25
 41
1.02857
  1
190002
  0
TEXT
  8
0
  6
CONTINUOUS
 62
     7
 10
-38.250001
 20
16.125
 40
5.25
 41
0.89999999
  1
SCO
  0
TEXT
  8
0
  6
CONTINUOUS
 62
     7
 10
-40.699096
 20
29.816183
 40
4.8000002
 41
0.85126993
  1
スピコン
  0
INSERT
  8
0
  6
CONTINUOUS
 62
     7
  2
KOZU0001
 10
-67.653646
 20
134.16423
  0
INSERT
  8
0
  6
CONTINUOUS
 62
     7
  2
KOZU0002
 10
-127.26816
 20
124.2964
  0
ENDSEC
  0
EOF
