  0
SECTION
  2
HEADER
  9
$EXTMAX
 10
1.2182922
 20
274.528
 30
0
  9
$EXTMIN
 10
-177.2301
 20
-1.0560455
 30
0
  9
$LIMMAX
 10
1.2182922
 20
274.528
  9
$LIMMIN
 10
-177.2301
 20
-1.0560455
  9
$PLIMMAX
 10
1.2182922
 20
274.528
  9
$PLIMMIN
 10
-177.2301
 20
-1.0560455
  9
$PEXTMAX
 10
1.2182922
 20
274.528
 30
0
  9
$PEXTMIN
 10
-177.2301
 20
-1.0560455
 30
0
  9
$TEXTSIZE
 40
3.2
  9
$DIMSHO
 70
     0
  9
$DIMASZ
 40
1.0
  9
$DIMTAD
 70
     1
  9
$DIMTIH
 70
     0
  9
$DIMTOH
 70
     0
  9
$DIMEXE
 40
2.54
  9
$DIMEXO
 40
2.54
  9
$DIMTVP
 40
1.0
  9
$DIMSAH
 70
     1
  9
$DIMDLE
 40
0.0
  9
$DIMTXT
 40
3.2
  9
$DIMGAP
 40
1.6
  0
ENDSEC
  0
SECTION
  2
TABLES
  0
TABLE
  2
LTYPE
 70
     39
  0
LTYPE
  2
CONTINUOUS
 70
    64
  3
Solid line
 72
    65
 73
     0
 40
0.0
  0
LTYPE
  2
ACAD_ISO02W100
 70
     0
  3
ISO dash __ __ __ __ __ __ __ __ __ __ __ __ __
 72
    65
 73
     2
 40
15.0
 49
12.0
 49
-3.0
  0
LTYPE
  2
ACAD_ISO03W100
 70
     0
  3
ISO dash space __    __    __    __    __    __
 72
    65
 73
     2
 40
30.0
 49
12.0
 49
-18.0
  0
LTYPE
  2
ACAD_ISO04W100
 70
     0
  3
ISO long-dash dot ____ . ____ . ____ . ____ . _
 72
    65
 73
     4
 40
30.0
 49
24.0
 49
-3.0
 49
0.0
 49
-3.0
  0
LTYPE
  2
ACAD_ISO05W100
 70
     0
  3
ISO long-dash double-dot ____ .. ____ .. ____ .
 72
    65
 73
     6
 40
33.0
 49
24.0
 49
-3.0
 49
0.0
 49
-3.0
 49
0.0
 49
-3.0
  0
LTYPE
  2
ACAD_ISO06W100
 70
     0
  3
ISO long-dash triple-dot ____ ... ____ ... ____
 72
    65
 73
     8
 40
36.0
 49
24.0
 49
-3.0
 49
0.0
 49
-3.0
 49
0.0
 49
-3.0
 49
0.0
 49
-3.0
  0
LTYPE
  2
ACAD_ISO07W100
 70
     0
  3
ISO dot . . . . . . . . . . . . . . . . . . . .
 72
    65
 73
     2
 40
3.0
 49
0.0
 49
-3.0
  0
LTYPE
  2
ACAD_ISO08W100
 70
     0
  3
ISO long-dash short-dash ____ __ ____ __ ____ _
 72
    65
 73
     4
 40
36.0
 49
24.0
 49
-3.0
 49
6.0
 49
-3.0
  0
LTYPE
  2
ACAD_ISO09W100
 70
     0
  3
ISO long-dash double-short-dash ____ __ __ ____
 72
    65
 73
     6
 40
45.0
 49
24.0
 49
-3.0
 49
6.0
 49
-3.0
 49
6.0
 49
-3.0
  0
LTYPE
  2
ACAD_ISO10W100
 70
     0
  3
ISO dash dot __ . __ . __ . __ . __ . __ . __ .
 72
    65
 73
     4
 40
18.0
 49
12.0
 49
-3.0
 49
0.0
 49
-3.0
  0
LTYPE
  2
ACAD_ISO11W100
 70
     0
  3
ISO double-dash dot __ __ . __ __ . __ __ . __ 
 72
    65
 73
     6
 40
33.0
 49
12.0
 49
-3.0
 49
12.0
 49
-3.0
 49
0.0
 49
-3.0
  0
LTYPE
  2
ACAD_ISO12W100
 70
     0
  3
ISO dash double-dot __ . . __ . . __ . . __ . .
 72
    65
 73
     6
 40
21.0
 49
12.0
 49
-3.0
 49
0.0
 49
-3.0
 49
0.0
 49
-3.0
  0
LTYPE
  2
ACAD_ISO13W100
 70
     0
  3
ISO double-dash double-dot __ __ . . __ __ . . 
 72
    65
 73
     8
 40
36.0
 49
12.0
 49
-3.0
 49
12.0
 49
-3.0
 49
0.0
 49
-3.0
 49
0.0
 49
-3.0
  0
LTYPE
  2
ACAD_ISO14W100
 70
     0
  3
ISO dash triple-dot __ . . . __ . . . __ . . . 
 72
    65
 73
     8
 40
24.0
 49
12.0
 49
-3.0
 49
0.0
 49
-3.0
 49
0.0
 49
-3.0
 49
0.0
 49
-3.0
  0
LTYPE
  2
ACAD_ISO15W100
 70
     0
  3
ISO double-dash triple-dot __ __ . . . __ __ . 
 72
    65
 73
    10
 40
39.0
 49
12.0
 49
-3.0
 49
12.0
 49
-3.0
 49
0.0
 49
-3.0
 49
0.0
 49
-3.0
 49
0.0
 49
-3.0
  0
LTYPE
  2
BORDER
 70
    64
  3
Border __ __ . __ __ . __ __ . __ __ . __ __ .
 72
    65
 73
     6
 40
3.5
 49
1.0
 49
-0.5
 49
1.0
 49
-0.5
 49
0.0
 49
-0.5
  0
LTYPE
  2
BORDER2
 70
    64
  3
Border (.5x) __.__.__.__.__.__.__.__.__.__.__.
 72
    65
 73
     6
 40
1.75
 49
0.5
 49
-0.25
 49
0.5
 49
-0.25
 49
0.0
 49
-0.25
  0
LTYPE
  2
BORDERX2
 70
    64
  3
Border (2x) ____  ____  .  ____  ____  .  ___
 72
    65
 73
     6
 40
7.0
 49
2.0
 49
-1.0
 49
2.0
 49
-1.0
 49
0.0
 49
-1.0
  0
LTYPE
  2
CENTER
 70
    64
  3
Center ____ _ ____ _ ____ _ ____ _ ____ _ ____
 72
    65
 73
     4
 40
12.0
 49
7.5
 49
-1.5
 49
1.5
 49
-1.5
  0
LTYPE
  2
CENTER2
 70
    64
  3
Center (.5x) ___ _ ___ _ ___ _ ___ _ ___ _ ___
 72
    65
 73
     4
 40
6.0
 49
3.75
 49
-0.75
 49
0.75
 49
-0.75
  0
LTYPE
  2
CENTERX2
 70
    64
  3
Center (2x) ________  __  ________  __  _____
 72
    65
 73
     4
 40
24.0
 49
15.0
 49
-3.0
 49
3.0
 49
-3.0
  0
LTYPE
  2
DASHDOT
 70
    64
  3
Dash dot __ . __ . __ . __ . __ . __ . __ . __
 72
    65
 73
     4
 40
6.0
 49
3.0
 49
-1.5
 49
0.0
 49
-1.5
  0
LTYPE
  2
DASHDOT2
 70
    64
  3
Dash dot (.5x) _._._._._._._._._._._._._._._.
 72
    65
 73
     4
 40
3.0
 49
1.5
 49
-0.75
 49
0.0
 49
-0.75
  0
LTYPE
  2
DASHDOTX2
 70
    64
  3
Dash dot (2x) ____  .  ____  .  ____  .  ___
 72
    65
 73
     4
 40
12.0
 49
6.0
 49
-3.0
 49
0.0
 49
-3.0
  0
LTYPE
  2
DASHED
 70
    64
  3
Dashed __ __ __ __ __ __ __ __ __ __ __ __ __ _
 72
    65
 73
     2
 40
4.5
 49
3.0
 49
-1.5
  0
LTYPE
  2
DASHED2
 70
    64
  3
Dashed (.5x) _ _ _ _ _ _ _ _ _ _ _ _ _ _ _ _ _
 72
    65
 73
     2
 40
2.25
 49
1.5
 49
-0.75
  0
LTYPE
  2
DASHEDX2
 70
    64
  3
Dashed (2x) ____  ____  ____  ____  ____  ___
 72
    65
 73
     2
 40
9.0
 49
6.0
 49
-3.0
  0
LTYPE
  2
DIVIDE
 70
    64
  3
Divide ____ . . ____ . . ____ . . ____ . . ____
 72
    65
 73
     6
 40
7.5
 49
3.0
 49
-1.5
 49
0.0
 49
-1.5
 49
0.0
 49
-1.5
  0
LTYPE
  2
DIVIDE2
 70
    64
  3
Divide (.5x) __..__..__..__..__..__..__..__.._
 72
    65
 73
     6
 40
3.75
 49
1.5
 49
-0.75
 49
0.0
 49
-0.75
 49
0.0
 49
-0.75
  0
LTYPE
  2
DIVIDEX2
 70
    64
  3
Divide (2x) ________  .  .  ________  .  .  _
 72
    65
 73
     6
 40
15.0
 49
6.0
 49
-3.0
 49
0.0
 49
-3.0
 49
0.0
 49
-3.0
  0
LTYPE
  2
DOT
 70
    64
  3
Dot . . . . . . . . . . . . . . . . . . . . . .
 72
    65
 73
     2
 40
1.5
 49
0.0
 49
-1.5
  0
LTYPE
  2
DOT2
 70
    64
  3
Dot (.5x) .....................................
 72
    65
 73
     2
 40
0.75
 49
0.0
 49
-0.75
  0
LTYPE
  2
DOTX2
 70
    64
  3
Dot (2x) .  .  .  .  .  .  .  .  .  .  .  .  . 
 72
    65
 73
     2
 40
3.0
 49
0.0
 49
-3.0
  0
LTYPE
  2
HIDDEN
 70
    64
  3
Hidden __ __ __ __ __ __ __ __ __ __ __ __ __ _
 72
    65
 73
     2
 40
4.5
 49
3.0
 49
-1.5
  0
LTYPE
  2
HIDDEN2
 70
    64
  3
Hidden (.5x) _ _ _ _ _ _ _ _ _ _ _ _ _ _ _ _ _
 72
    65
 73
     2
 40
2.25
 49
1.5
 49
-0.75
  0
LTYPE
  2
HIDDENX2
 70
    64
  3
Hidden (2x) ____ ____ ____ ____ ____ ____ ____
 72
    65
 73
     2
 40
9.0
 49
6.0
 49
-3.0
  0
LTYPE
  2
PHANTOM
 70
    64
  3
Phantom ______  __  __  ______  __  __  ______
 72
    65
 73
     6
 40
15.0
 49
7.5
 49
-1.5
 49
1.5
 49
-1.5
 49
1.5
 49
-1.5
  0
LTYPE
  2
PHANTOM2
 70
    64
  3
Phantom (.5x) ___ _ _ ___ _ _ ___ _ _ ___ _ _
 72
    65
 73
     6
 40
7.5
 49
3.75
 49
-0.75
 49
0.75
 49
-0.75
 49
0.75
 49
-0.75
  0
LTYPE
  2
PHANTOMX2
 70
    64
  3
Phantom (2x) ____________    ____    ____   _
 72
    65
 73
     6
 40
30.0
 49
15.0
 49
-3.0
 49
3.0
 49
-3.0
 49
3.0
 49
-3.0
  0
ENDTAB
  0
TABLE
  2
LAYER
 70
     1
  0
LAYER
  2
0
 70
     0
 62
     7
  6
CONTINUOUS
  0
ENDTAB
  0
TABLE
  2
STYLE
 70
     1
  0
STYLE
  2
STANDARD
 70
     0
 40
0.0
 41
1.0
 50
0.0
 71
     0
 42
0.2
  3
txt
  4
BIGFONT
  0
ENDTAB
  0
TABLE
  2
DIMSTYLE
 70
     0
  0
ENDTAB
  0
ENDSEC
  0
SECTION
  2
BLOCKS
  0
BLOCK
  8
0
  2
KOZU0001
 70
    64
 10
0
 20
0
  0
LINE
  8
0
  6
CONTINUOUS
 62
     7
 10
0
 20
0
 11
-10.512393
 21
13.018307
  0
LINE
  8
0
  6
CONTINUOUS
 62
     7
 10
0
 20
0
 11
-2.6627627
 21
1.7057827
  0
LINE
  8
0
  6
CONTINUOUS
 62
     7
 10
0
 20
0
 11
-1.1067405
 21
2.9622838
  0
TEXT
  8
0
  6
CONTINUOUS
 62
     7
 10
-26.927523
 20
13.818305
 40
3.2
 41
0.84892706
  1
Ｍ１２ｘ１
  0
LINE
  8
0
  6
CONTINUOUS
 62
     7
 10
0
 20
0
 11
-10.512393
 21
13.018307
  0
LINE
  8
0
  6
CONTINUOUS
 62
     7
 10
-10.512392
 20
13.018305
 11
-28.341494
 21
13.018305
  0
ENDBLK
  8
0
  0
BLOCK
  8
0
  2
KOZU0002
 70
    64
 10
0
 20
0
  0
LINE
  8
0
  6
CONTINUOUS
 62
     7
 10
0
 20
0
 11
-13.502333
 21
11.80399
  0
LINE
  8
0
  6
CONTINUOUS
 62
     7
 10
0
 20
0
 11
-2.9167759
 21
1.2216457
  0
LINE
  8
0
  6
CONTINUOUS
 62
     7
 10
0
 20
0
 11
-1.6004333
 21
2.7273821
  0
TEXT
  8
0
  6
CONTINUOUS
 62
     7
 10
-31.948251
 20
12.603982
 40
3.2
 41
0.84892706
  1
リリ－フ穴
  0
LINE
  8
0
  6
CONTINUOUS
 62
     7
 10
0
 20
0
 11
-13.502333
 21
11.80399
  0
LINE
  8
0
  6
CONTINUOUS
 62
     7
 10
-13.502328
 20
11.803982
 11
-33.776254
 21
11.803982
  0
ENDBLK
  8
0
  0
BLOCK
  8
0
  2
KOZU0003
 70
    64
 10
0
 20
0
  0
LINE
  8
0
  6
CONTINUOUS
 62
     7
 10
0
 20
0
 11
12.014714
 21
8.8902892
  0
LINE
  8
0
  6
CONTINUOUS
 62
     7
 10
0
 20
0
 11
1.8167661
 21
2.5883123
  0
LINE
  8
0
  6
CONTINUOUS
 62
     7
 10
0
 20
0
 11
3.0064003
 21
0.9805902
  0
TEXT
  8
0
  6
CONTINUOUS
 62
     7
 10
14.134538
 20
9.6902872
 40
3.2
 41
0.84892706
  1
ＰＴ１／８
  0
LINE
  8
0
  6
CONTINUOUS
 62
     7
 10
0
 20
0
 11
12.014714
 21
8.8902892
  0
LINE
  8
0
  6
CONTINUOUS
 62
     7
 10
12.014712
 20
8.8902872
 11
31.048541
 21
8.8902872
  0
ENDBLK
  8
0
  0
BLOCK
  8
0
  2
KOZU0004
 70
    64
 10
0
 20
0
  0
LINE
  8
0
  6
CONTINUOUS
 62
     7
 10
0
 20
0
 11
-11.669583
 21
-17.78182
  0
LINE
  8
0
  6
CONTINUOUS
 62
     7
 10
0
 20
0
 11
-0.80995308
 21
-3.0567917
  0
LINE
  8
0
  6
CONTINUOUS
 62
     7
 10
0
 20
0
 11
-2.4820375
 21
-1.9594615
  0
TEXT
  8
0
  6
CONTINUOUS
 62
     7
 10
-37.874982
 20
-16.981819
 40
3.2
 41
0.84556539
  1
２－Ｍ５ｘ０．８
  0
LINE
  8
0
  6
CONTINUOUS
 62
     7
 10
0
 20
0
 11
-11.669583
 21
-17.78182
  0
LINE
  8
0
  6
CONTINUOUS
 62
     7
 10
-11.669582
 20
-17.781819
 11
-39.098682
 21
-17.781819
  0
ENDBLK
  8
0
  0
BLOCK
  8
0
  2
KOZU0005
 70
    64
 10
0
 20
0
  0
LINE
  8
0
  6
CONTINUOUS
 62
     7
 10
0
 20
0
 11
7.0625833
 21
-10.541415
  0
LINE
  8
0
  6
CONTINUOUS
 62
     7
 10
0
 20
0
 11
2.5005968
 21
-1.9357209
  0
LINE
  8
0
  6
CONTINUOUS
 62
     7
 10
0
 20
0
 11
0.83904485
 21
-3.0489348
  0
TEXT
  8
0
  6
CONTINUOUS
 62
     7
 10
9.0599919
 20
-9.7414212
 40
3.2
 41
0.84741101
  1
Ｍ５ｘ０．８
  0
LINE
  8
0
  6
CONTINUOUS
 62
     7
 10
0
 20
0
 11
7.0625833
 21
-10.541415
  0
LINE
  8
0
  6
CONTINUOUS
 62
     7
 10
7.0625798
 20
-10.541421
 11
29.173992
 21
-10.541421
  0
ENDBLK
  8
0
  0
ENDSEC
  0
SECTION
  2
ENTITIES
  0
LINE
  8
0
  6
CONTINUOUS
 62
     7
 10
-78.580208
 20
134.8273
 11
-78.580208
 21
112.92731
  0
LINE
  8
0
  6
CONTINUOUS
 62
     7
 10
-98.580208
 20
134.8273
 11
-98.580208
 21
112.91637
  0
LINE
  8
0
  6
CONTINUOUS
 62
     7
 10
-92.808205
 20
80.927307
 11
-84.352211
 21
80.927307
  0
LINE
  8
0
  6
CONTINUOUS
 62
     7
 10
-93.080208
 20
160.3273
 11
-84.080208
 21
160.3273
  0
LINE
  8
0
  6
CENTER
 62
     7
 10
-88.580208
 20
167.33644
 11
-88.580208
 21
72.091537
  0
LINE
  8
0
  6
CONTINUOUS
 62
     7
 10
-95.580208
 20
90.927307
 11
-81.580208
 21
90.927307
  0
LINE
  8
0
  6
CONTINUOUS
 62
     7
 10
-98.580208
 20
94.427307
 11
-78.580208
 21
94.427307
  0
LINE
  8
0
  6
CONTINUOUS
 62
     7
 10
-98.580208
 20
103.1273
 11
-78.580208
 21
103.1273
  0
LINE
  8
0
  6
CONTINUOUS
 62
     7
 10
-95.580208
 20
94.427307
 11
-95.580208
 21
90.927307
  0
LINE
  8
0
  6
CONTINUOUS
 62
     7
 10
-81.580208
 20
94.427307
 11
-81.580208
 21
90.927307
  0
LINE
  8
0
  6
CONTINUOUS
 62
     7
 10
-98.580208
 20
112.92731
 11
-79.055206
 21
112.92731
  0
LINE
  8
0
  6
CONTINUOUS
 62
     7
 10
-75.880211
 20
112.42731
 11
-75.880211
 21
103.6273
  0
LINE
  8
0
  6
CONTINUOUS
 62
     7
 10
-101.2802
 20
112.42731
 11
-101.2802
 21
103.6273
  0
LINE
  8
0
  6
CONTINUOUS
 62
     7
 10
-82.230209
 20
112.42731
 11
-82.230209
 21
103.6273
  0
LINE
  8
0
  6
CONTINUOUS
 62
     7
 10
-94.930206
 20
112.42731
 11
-94.930206
 21
103.6273
  0
LINE
  8
0
  6
CONTINUOUS
 62
     7
 10
-98.580208
 20
103.1273
 11
-98.580208
 21
94.427307
  0
LINE
  8
0
  6
CONTINUOUS
 62
     7
 10
-78.580208
 20
103.1273
 11
-78.580208
 21
94.427307
  0
LINE
  8
0
  6
CONTINUOUS
 62
     7
 10
-97.580208
 20
135.8273
 11
-79.580208
 21
135.8273
  0
LINE
  8
0
  6
CONTINUOUS
 62
     7
 10
-83.080208
 20
93.927307
 11
-83.080208
 21
90.927307
  0
LINE
  8
0
  6
CONTINUOUS
 62
     7
 10
-94.080208
 20
93.927307
 11
-94.080208
 21
90.927307
  0
LINE
  8
0
  6
CONTINUOUS
 62
     7
 10
-94.080208
 20
93.927307
 11
-83.080208
 21
93.927307
  0
LINE
  8
0
  6
CONTINUOUS
 62
     7
 10
-93.080208
 20
152.3273
 11
-84.080208
 21
152.3273
  0
LINE
  8
0
  6
CONTINUOUS
 62
     7
 10
-94.080208
 20
159.3273
 11
-94.080208
 21
153.3273
  0
LINE
  8
0
  6
CONTINUOUS
 62
     7
 10
-83.080208
 20
159.3273
 11
-83.080208
 21
153.3273
  0
LINE
  8
0
  6
CONTINUOUS
 62
     7
 10
-94.080206
 20
159.32731
 11
-93.080208
 21
160.32731
  0
LINE
  8
0
  6
CONTINUOUS
 62
     7
 10
-84.080198
 20
160.32731
 11
-83.080208
 21
159.32732
  0
LINE
  8
0
  6
CONTINUOUS
 62
     7
 10
-94.080208
 20
159.3273
 11
-83.080208
 21
159.3273
  0
LINE
  8
0
  6
CONTINUOUS
 62
     7
 10
-94.080208
 20
142.8273
 11
-83.080208
 21
142.8273
  0
LINE
  8
0
  6
CONTINUOUS
 62
     7
 10
-82.580208
 20
142.3273
 11
-82.580208
 21
140.8273
  0
LINE
  8
0
  6
CONTINUOUS
 62
     7
 10
-94.580208
 20
142.3273
 11
-94.580208
 21
140.8273
  0
LINE
  8
0
  6
CONTINUOUS
 62
     7
 10
-91.080208
 20
152.3273
 11
-91.080208
 21
146.8273
  0
LINE
  8
0
  6
CONTINUOUS
 62
     7
 10
-86.080208
 20
152.3273
 11
-86.080208
 21
146.8273
  0
LINE
  8
0
  6
CONTINUOUS
 62
     7
 10
-90.580208
 20
152.3273
 11
-90.580208
 21
146.8273
  0
LINE
  8
0
  6
CONTINUOUS
 62
     7
 10
-86.580208
 20
152.3273
 11
-86.580208
 21
146.8273
  0
LINE
  8
0
  6
CONTINUOUS
 62
     7
 10
-83.580208
 20
90.927307
 11
-83.580208
 21
88.927307
  0
LINE
  8
0
  6
CONTINUOUS
 62
     7
 10
-93.580208
 20
90.927307
 11
-93.580208
 21
88.927307
  0
LINE
  8
0
  6
CENTER
 62
     7
 10
-92.580208
 20
122.92731
 11
-84.580208
 21
122.92731
  0
LINE
  8
0
  6
CENTER
 62
     7
 10
-94.580208
 20
108.02731
 11
-82.580208
 21
108.02731
  0
LINE
  8
0
  6
CONTINUOUS
 62
     7
 10
-91.955208
 20
146.8273
 11
-85.205208
 21
146.8273
  0
LINE
  8
0
  6
CONTINUOUS
 62
     7
 10
-84.080208
 20
146.3273
 11
-84.080208
 21
143.3273
  0
LINE
  8
0
  6
CONTINUOUS
 62
     7
 10
-93.080208
 20
146.3273
 11
-93.080208
 21
143.3273
  0
LINE
  8
0
  6
CONTINUOUS
 62
     7
 10
-90.830208
 20
146.3273
 11
-90.830208
 21
143.3273
  0
LINE
  8
0
  6
CONTINUOUS
 62
     7
 10
-86.330208
 20
146.3273
 11
-86.330208
 21
143.3273
  0
LINE
  8
0
  6
CONTINUOUS
 62
     7
 10
-94.580208
 20
140.8273
 11
-82.580208
 21
140.8273
  0
LINE
  8
0
  6
CONTINUOUS
 62
     7
 10
-96.780205
 20
138.8273
 11
-80.380211
 21
138.8273
  0
LINE
  8
0
  6
CONTINUOUS
 62
     7
 10
-96.580208
 20
140.52731
 11
-96.580208
 21
139.1273
  0
LINE
  8
0
  6
CONTINUOUS
 62
     7
 10
-80.580208
 20
140.52731
 11
-80.580208
 21
139.1273
  0
LINE
  8
0
  6
CONTINUOUS
 62
     7
 10
-94.580208
 20
137.8273
 11
-94.580208
 21
136.3273
  0
LINE
  8
0
  6
CONTINUOUS
 62
     7
 10
-82.580208
 20
137.8273
 11
-82.580208
 21
136.3273
  0
LINE
  8
0
  6
CONTINUOUS
 62
     7
 10
-84.580208
 20
140.52731
 11
-84.580208
 21
139.1273
  0
LINE
  8
0
  6
CONTINUOUS
 62
     7
 10
-92.580208
 20
140.52731
 11
-92.580208
 21
139.1273
  0
LINE
  8
0
  6
CONTINUOUS
 62
     7
 10
-93.580208
 20
88.927307
 11
-83.580208
 21
88.927307
  0
LINE
  8
0
  6
CONTINUOUS
 62
     7
 10
-93.580207
 20
88.927312
 11
-93.325797
 21
81.444911
  0
LINE
  8
0
  6
CONTINUOUS
 62
     7
 10
-92.999211
 20
88.927311
 11
-92.727211
 21
80.92731
  0
LINE
  8
0
  6
CONTINUOUS
 62
     7
 10
-83.580204
 20
88.927307
 11
-83.834605
 21
81.444906
  0
LINE
  8
0
  6
CONTINUOUS
 62
     7
 10
-84.161205
 20
88.927312
 11
-84.433205
 21
80.927311
  0
LINE
  8
0
  6
CONTINUOUS
 62
     7
 10
-94.080207
 20
93.927309
 11
-83.080212
 21
90.927311
  0
LINE
  8
0
  6
CONTINUOUS
 62
     7
 10
-83.080216
 20
93.927295
 11
-94.080206
 21
90.927297
  0
LINE
  8
0
  6
CONTINUOUS
 62
     7
 10
-94.080208
 20
153.3273
 11
-83.080208
 21
153.3273
  0
LINE
  8
0
  6
CONTINUOUS
 62
     7
 10
-94.080198
 20
153.32731
 11
-93.080197
 21
152.32731
  0
LINE
  8
0
  6
CONTINUOUS
 62
     7
 10
-84.08021
 20
152.32732
 11
-83.080208
 21
153.32732
  0
LINE
  8
0
  6
CONTINUOUS
 62
     7
 10
-96.780205
 20
138.8273
 11
-96.780205
 21
137.8273
  0
LINE
  8
0
  6
CONTINUOUS
 62
     7
 10
-80.380211
 20
138.8273
 11
-80.380211
 21
137.8273
  0
LINE
  8
0
  6
CONTINUOUS
 62
     7
 10
-96.780205
 20
137.8273
 11
-80.380211
 21
137.8273
  0
LINE
  8
0
  6
CONTINUOUS
 62
     7
 10
-92.808209
 20
80.927312
 11
-93.325806
 21
81.444912
  0
LINE
  8
0
  6
CONTINUOUS
 62
     7
 10
-84.352213
 20
80.927315
 11
-83.834615
 21
81.444914
  0
LINE
  8
0
  6
CONTINUOUS
 62
     7
 10
-93.325806
 20
81.444908
 11
-83.83461
 21
81.444908
  0
LINE
  8
0
  6
CONTINUOUS
 62
     7
 10
-94.580208
 20
136.3273
 11
-82.580208
 21
136.3273
  0
LINE
  8
0
  6
CONTINUOUS
 62
     7
 10
-83.080208
 20
137.8273
 11
-83.080208
 21
136.3273
  0
LINE
  8
0
  6
CONTINUOUS
 62
     7
 10
-94.080208
 20
137.8273
 11
-94.080208
 21
136.3273
  0
LINE
  8
0
  6
CONTINUOUS
 62
     7
 10
-94.080208
 20
142.8273
 11
-94.080208
 21
140.8273
  0
LINE
  8
0
  6
CONTINUOUS
 62
     7
 10
-83.080208
 20
142.8273
 11
-83.080208
 21
140.8273
  0
LINE
  8
0
  6
CONTINUOUS
 62
     7
 10
-94.080208
 20
136.3273
 11
-94.080208
 21
135.8273
  0
LINE
  8
0
  6
CONTINUOUS
 62
     7
 10
-83.080208
 20
136.3273
 11
-83.080208
 21
135.8273
  0
LINE
  8
0
  6
CONTINUOUS
 62
     7
 10
-94.58022
 20
142.32731
 11
-94.08022
 21
142.82731
  0
LINE
  8
0
  6
CONTINUOUS
 62
     7
 10
-83.080205
 20
142.82732
 11
-82.580205
 21
142.32732
  0
LINE
  8
0
  6
CONTINUOUS
 62
     7
 10
-94.580208
 20
142.3273
 11
-82.580208
 21
142.3273
  0
LINE
  8
0
  6
CONTINUOUS
 62
     7
 10
-75.880193
 20
204.9273
 11
-82.230203
 21
215.92585
  0
LINE
  8
0
  6
CONTINUOUS
 62
     7
 10
-82.230209
 20
215.92583
 11
-94.930206
 21
215.92583
  0
LINE
  8
0
  6
CONTINUOUS
 62
     7
 10
-101.28018
 20
204.92731
 11
-94.93018
 21
215.92583
  0
LINE
  8
0
  6
CONTINUOUS
 62
     7
 10
-94.930206
 20
193.92877
 11
-101.28022
 21
204.9273
  0
LINE
  8
0
  6
CONTINUOUS
 62
     7
 10
-82.230209
 20
193.92879
 11
-94.930206
 21
193.92879
  0
LINE
  8
0
  6
CONTINUOUS
 62
     7
 10
-75.880225
 20
204.92729
 11
-82.230215
 21
193.92878
  0
LINE
  8
0
  6
CONTINUOUS
 62
     7
 10
-80.580212
 20
204.92731
 11
-84.580214
 21
211.85552
  0
LINE
  8
0
  6
CONTINUOUS
 62
     7
 10
-84.580208
 20
211.85551
 11
-92.580208
 21
211.85551
  0
LINE
  8
0
  6
CONTINUOUS
 62
     7
 10
-96.58022
 20
204.92731
 11
-92.580223
 21
211.85551
  0
LINE
  8
0
  6
CONTINUOUS
 62
     7
 10
-92.580207
 20
197.99911
 11
-96.580208
 21
204.92731
  0
LINE
  8
0
  6
CONTINUOUS
 62
     7
 10
-84.580208
 20
197.9991
 11
-92.580208
 21
197.9991
  0
LINE
  8
0
  6
CONTINUOUS
 62
     7
 10
-80.580207
 20
204.9273
 11
-84.580201
 21
197.99911
  0
LINE
  8
0
  6
CONTINUOUS
 62
     7
 10
-84.530205
 20
218.42583
 11
-92.630211
 21
218.42583
  0
LINE
  8
0
  6
CONTINUOUS
 62
     7
 10
-84.530205
 20
218.42583
 11
-84.530205
 21
215.92583
  0
LINE
  8
0
  6
CONTINUOUS
 62
     7
 10
-92.630211
 20
218.42583
 11
-92.630211
 21
215.92583
  0
LINE
  8
0
  6
CONTINUOUS
 62
     7
 10
-90.605209
 20
218.42583
 11
-90.605209
 21
215.92583
  0
LINE
  8
0
  6
CONTINUOUS
 62
     7
 10
-86.555206
 20
218.42583
 11
-86.555206
 21
215.92583
  0
LINE
  8
0
  6
CONTINUOUS
 62
     7
 10
-84.894888
 20
153.3273
 11
-83.080213
 21
155.14198
  0
LINE
  8
0
  6
CONTINUOUS
 62
     7
 10
-87.139949
 20
153.3273
 11
-83.080212
 21
157.38705
  0
LINE
  8
0
  6
CONTINUOUS
 62
     7
 10
-89.385006
 20
153.3273
 11
-83.385018
 21
159.3273
  0
LINE
  8
0
  6
CONTINUOUS
 62
     7
 10
-91.630066
 20
153.3273
 11
-85.630079
 21
159.3273
  0
LINE
  8
0
  6
CONTINUOUS
 62
     7
 10
-93.875128
 20
153.3273
 11
-87.875145
 21
159.32729
  0
LINE
  8
0
  6
CONTINUOUS
 62
     7
 10
-94.080203
 20
155.36729
 11
-90.120203
 21
159.3273
  0
LINE
  8
0
  6
CONTINUOUS
 62
     7
 10
-94.080201
 20
157.61235
 11
-92.36526
 21
159.32729
  0
LINE
  8
0
  6
CONTINUOUS
 62
     7
 10
-83.080202
 20
157.81608
 11
-84.59143
 21
159.3273
  0
LINE
  8
0
  6
CONTINUOUS
 62
     7
 10
-83.080204
 20
155.57102
 11
-86.836486
 21
159.3273
  0
LINE
  8
0
  6
CONTINUOUS
 62
     7
 10
-83.081557
 20
153.3273
 11
-89.081568
 21
159.32731
  0
LINE
  8
0
  6
CONTINUOUS
 62
     7
 10
-85.326614
 20
153.3273
 11
-91.326626
 21
159.3273
  0
LINE
  8
0
  6
CONTINUOUS
 62
     7
 10
-87.571688
 20
153.3273
 11
-93.571702
 21
159.3273
  0
LINE
  8
0
  6
CONTINUOUS
 62
     7
 10
-89.816742
 20
153.32729
 11
-94.080211
 21
157.59075
  0
LINE
  8
0
  6
CONTINUOUS
 62
     7
 10
-92.061821
 20
153.3273
 11
-94.080209
 21
155.34569
  0
LINE
  8
0
  6
CONTINUOUS
 62
     7
 10
-61.800003
 20
38.5
 11
0
 21
38.5
  0
LINE
  8
0
  6
CONTINUOUS
 62
     7
 10
-61.800003
 20
12.5
 11
0
 21
12.5
  0
LINE
  8
0
  6
CONTINUOUS
 62
     7
 10
-61.800003
 20
25
 11
0
 21
25
  0
LINE
  8
0
  6
CONTINUOUS
 62
     7
 10
-61.800003
 20
38.5
 11
-61.800003
 21
0
  0
LINE
  8
0
  6
CONTINUOUS
 62
     7
 10
-177
 20
-0.19999981
 11
0
 21
-0.19999981
  0
LINE
  8
0
  6
CONTINUOUS
 62
     7
 10
-177
 20
274.29999
 11
-177
 21
-0.19999981
  0
LINE
  8
0
  6
CONTINUOUS
 62
     7
 10
-177
 20
-0.39999962
 11
-1.6000032
 21
-0.39999962
  0
LINE
  8
0
  6
CONTINUOUS
 62
     7
 10
-177.2
 20
274.29999
 11
-177.2
 21
-0.19999981
  0
LINE
  8
0
  6
CONTINUOUS
 62
     7
 10
0
 20
274.29999
 11
0
 21
0
  0
LINE
  8
0
  6
CONTINUOUS
 62
     7
 10
-0.20000005
 20
274.29999
 11
-0.20000005
 21
0
  0
LINE
  8
0
  6
CONTINUOUS
 62
     7
 10
-177
 20
274.29999
 11
0
 21
274.29999
  0
LINE
  8
0
  6
CONTINUOUS
 62
     7
 10
-177
 20
274.5
 11
0
 21
274.5
  0
LINE
  8
0
  6
CONTINUOUS
 62
     7
 10
-177.2
 20
274.29999
 11
-177.2
 21
-0.19999981
  0
LINE
  8
0
  6
CENTER
 62
     7
 10
-88.580208
 20
217.46732
 11
-88.580208
 21
192.38731
  0
LINE
  8
0
  6
CENTER
 62
     7
 10
-101.12021
 20
204.92731
 11
-76.040207
 21
204.92731
  0
ARC
  8
0
  6
CONTINUOUS
 62
     7
 10
-97.580208
 20
134.8273
 40
1
 50
90.000003
 51
180.00001
  0
ARC
  8
0
  6
CONTINUOUS
 62
     7
 10
-79.580208
 20
134.8273
 40
1
 50
0
 51
90.000003
  0
CIRCLE
  8
0
  6
CONTINUOUS
 62
     7
 10
-88.580208
 20
122.92731
 40
1
  0
CIRCLE
  8
0
  6
CONTINUOUS
 62
     7
 10
-88.580208
 20
108.02731
 40
4.25
  0
CIRCLE
  8
0
  6
CONTINUOUS
 62
     7
 10
-88.580208
 20
108.02731
 40
2.5
  0
CIRCLE
  8
0
  6
CONTINUOUS
 62
     7
 10
-88.580208
 20
108.02731
 40
2
  0
ARC
  8
0
  6
CONTINUOUS
 62
     7
 10
-88.580208
 20
72.354805
 40
40.572498
 50
80.995621
 51
99.004377
  0
ARC
  8
0
  6
CONTINUOUS
 62
     7
 10
-98.105209
 20
102.59668
 40
10.330625
 50
72.101082
 51
107.89892
  0
ARC
  8
0
  6
CONTINUOUS
 62
     7
 10
-79.055206
 20
102.59668
 40
10.330625
 50
72.101082
 51
107.89892
  0
ARC
  8
0
  6
CONTINUOUS
 62
     7
 10
-98.105209
 20
113.45792
 40
10.330625
 50
252.10108
 51
287.89892
  0
ARC
  8
0
  6
CONTINUOUS
 62
     7
 10
-88.580208
 20
143.6998
 40
40.572498
 50
260.99562
 51
279.00438
  0
ARC
  8
0
  6
CONTINUOUS
 62
     7
 10
-79.055206
 20
113.45792
 40
10.330625
 50
252.10108
 51
287.89892
  0
ARC
  8
0
  6
CONTINUOUS
 62
     7
 10
-88.580208
 20
141.5148
 40
5.3125
 50
64.942381
 51
115.05761
  0
ARC
  8
0
  6
CONTINUOUS
 62
     7
 10
-91.955208
 20
145.31168
 40
1.515625
 50
42.075021
 51
137.92497
  0
ARC
  8
0
  6
CONTINUOUS
 62
     7
 10
-85.205208
 20
145.31168
 40
1.515625
 50
42.075021
 51
137.92497
  0
ARC
  8
0
  6
CONTINUOUS
 62
     7
 10
-91.955208
 20
144.34293
 40
1.515625
 50
222.07503
 51
317.92498
  0
ARC
  8
0
  6
CONTINUOUS
 62
     7
 10
-88.580208
 20
148.1398
 40
5.3125
 50
244.94239
 51
295.05762
  0
ARC
  8
0
  6
CONTINUOUS
 62
     7
 10
-85.205208
 20
144.34293
 40
1.515625
 50
222.07503
 51
317.92498
  0
ARC
  8
0
  6
CONTINUOUS
 62
     7
 10
-88.580208
 20
114.01065
 40
26.816668
 50
81.421695
 51
98.578303
  0
ARC
  8
0
  6
CONTINUOUS
 62
     7
 10
-94.580208
 20
134.01064
 40
6.8166666
 50
72.93847
 51
107.06153
  0
ARC
  8
0
  6
CONTINUOUS
 62
     7
 10
-82.580208
 20
134.01064
 40
6.8166666
 50
72.93847
 51
107.06153
  0
ARC
  8
0
  6
CONTINUOUS
 62
     7
 10
-94.580208
 20
145.64398
 40
6.8166666
 50
252.93847
 51
287.06153
  0
ARC
  8
0
  6
CONTINUOUS
 62
     7
 10
-88.580208
 20
165.64398
 40
26.816668
 50
261.4217
 51
278.57831
  0
ARC
  8
0
  6
CONTINUOUS
 62
     7
 10
-82.580208
 20
145.64398
 40
6.8166666
 50
252.93847
 51
287.06153
  0
CIRCLE
  8
0
  6
CONTINUOUS
 62
     7
 10
-88.580208
 20
204.92731
 40
4.5
  0
CIRCLE
  8
0
  6
CONTINUOUS
 62
     7
 10
-88.580208
 20
204.92731
 40
10
  0
CIRCLE
  8
0
  6
CONTINUOUS
 62
     7
 10
-88.580208
 20
204.92731
 40
5.5
  0
TEXT
  8
0
  6
CONTINUOUS
 62
     7
 10
-45.099985
 20
3.4250002
 40
5.25
 41
1.02857
  1
190009
  0
TEXT
  8
0
  6
CONTINUOUS
 62
     7
 10
-38.350003
 20
16.125
 40
5.25
 41
0.89999999
  1
RSR
  0
TEXT
  8
0
  6
CONTINUOUS
 62
     7
 10
-48.455952
 20
29.574411
 40
4.8000002
 41
0.84634966
  1
レギュレーター
  0
INSERT
  8
0
  6
CONTINUOUS
 62
     7
  2
KOZU0001
 10
-94.580206
 20
141.53872
  0
INSERT
  8
0
  6
CONTINUOUS
 62
     7
  2
KOZU0002
 10
-89.333075
 20
123.58548
  0
INSERT
  8
0
  6
CONTINUOUS
 62
     7
  2
KOZU0003
 10
-83.725101
 20
84.665575
  0
INSERT
  8
0
  6
CONTINUOUS
 62
     7
  2
KOZU0004
 10
-89.95187
 20
105.9372
  0
INSERT
  8
0
  6
CONTINUOUS
 62
     7
  2
KOZU0005
 10
-88.580204
 20
80.927308
  0
ENDSEC
  0
EOF
