  0
SECTION
  2
HEADER
  9
$EXTMAX
 10
0
 20
297
 30
0
  9
$EXTMIN
 10
-420
 20
0
 30
0
  9
$LIMMAX
 10
0
 20
297
  9
$LIMMIN
 10
-420
 20
0
  9
$PLIMMAX
 10
0
 20
297
  9
$PLIMMIN
 10
-420
 20
0
  9
$PEXTMAX
 10
0
 20
297
 30
0
  9
$PEXTMIN
 10
-420
 20
0
 30
0
  9
$TEXTSIZE
 40
3.2
  9
$DIMSHO
 70
     0
  9
$DIMASZ
 40
1.0
  9
$DIMTAD
 70
     1
  9
$DIMTIH
 70
     0
  9
$DIMTOH
 70
     0
  9
$DIMEXE
 40
2.54
  9
$DIMEXO
 40
2.54
  9
$DIMTVP
 40
1.0
  9
$DIMSAH
 70
     1
  9
$DIMDLE
 40
0.0
  9
$DIMTXT
 40
3.200000047683716
  9
$DIMGAP
 40
1.600000023841858
  0
ENDSEC
  0
SECTION
  2
TABLES
  0
TABLE
  2
LTYPE
 70
     39
  0
LTYPE
  2
CONTINUOUS
 70
    64
  3
Solid line
 72
    65
 73
     0
 40
0.0
  0
LTYPE
  2
ACAD_ISO02W100
 70
     0
  3
ISO dash __ __ __ __ __ __ __ __ __ __ __ __ __
 72
    65
 73
     2
 40
15.0
 49
12.0
 49
-3.0
  0
LTYPE
  2
ACAD_ISO03W100
 70
     0
  3
ISO dash space __    __    __    __    __    __
 72
    65
 73
     2
 40
30.0
 49
12.0
 49
-18.0
  0
LTYPE
  2
ACAD_ISO04W100
 70
     0
  3
ISO long-dash dot ____ . ____ . ____ . ____ . _
 72
    65
 73
     4
 40
30.0
 49
24.0
 49
-3.0
 49
0.0
 49
-3.0
  0
LTYPE
  2
ACAD_ISO05W100
 70
     0
  3
ISO long-dash double-dot ____ .. ____ .. ____ .
 72
    65
 73
     6
 40
33.0
 49
24.0
 49
-3.0
 49
0.0
 49
-3.0
 49
0.0
 49
-3.0
  0
LTYPE
  2
ACAD_ISO06W100
 70
     0
  3
ISO long-dash triple-dot ____ ... ____ ... ____
 72
    65
 73
     8
 40
36.0
 49
24.0
 49
-3.0
 49
0.0
 49
-3.0
 49
0.0
 49
-3.0
 49
0.0
 49
-3.0
  0
LTYPE
  2
ACAD_ISO07W100
 70
     0
  3
ISO dot . . . . . . . . . . . . . . . . . . . .
 72
    65
 73
     2
 40
3.0
 49
0.0
 49
-3.0
  0
LTYPE
  2
ACAD_ISO08W100
 70
     0
  3
ISO long-dash short-dash ____ __ ____ __ ____ _
 72
    65
 73
     4
 40
36.0
 49
24.0
 49
-3.0
 49
6.0
 49
-3.0
  0
LTYPE
  2
ACAD_ISO09W100
 70
     0
  3
ISO long-dash double-short-dash ____ __ __ ____
 72
    65
 73
     6
 40
45.0
 49
24.0
 49
-3.0
 49
6.0
 49
-3.0
 49
6.0
 49
-3.0
  0
LTYPE
  2
ACAD_ISO10W100
 70
     0
  3
ISO dash dot __ . __ . __ . __ . __ . __ . __ .
 72
    65
 73
     4
 40
18.0
 49
12.0
 49
-3.0
 49
0.0
 49
-3.0
  0
LTYPE
  2
ACAD_ISO11W100
 70
     0
  3
ISO double-dash dot __ __ . __ __ . __ __ . __ 
 72
    65
 73
     6
 40
33.0
 49
12.0
 49
-3.0
 49
12.0
 49
-3.0
 49
0.0
 49
-3.0
  0
LTYPE
  2
ACAD_ISO12W100
 70
     0
  3
ISO dash double-dot __ . . __ . . __ . . __ . .
 72
    65
 73
     6
 40
21.0
 49
12.0
 49
-3.0
 49
0.0
 49
-3.0
 49
0.0
 49
-3.0
  0
LTYPE
  2
ACAD_ISO13W100
 70
     0
  3
ISO double-dash double-dot __ __ . . __ __ . . 
 72
    65
 73
     8
 40
36.0
 49
12.0
 49
-3.0
 49
12.0
 49
-3.0
 49
0.0
 49
-3.0
 49
0.0
 49
-3.0
  0
LTYPE
  2
ACAD_ISO14W100
 70
     0
  3
ISO dash triple-dot __ . . . __ . . . __ . . . 
 72
    65
 73
     8
 40
24.0
 49
12.0
 49
-3.0
 49
0.0
 49
-3.0
 49
0.0
 49
-3.0
 49
0.0
 49
-3.0
  0
LTYPE
  2
ACAD_ISO15W100
 70
     0
  3
ISO double-dash triple-dot __ __ . . . __ __ . 
 72
    65
 73
    10
 40
39.0
 49
12.0
 49
-3.0
 49
12.0
 49
-3.0
 49
0.0
 49
-3.0
 49
0.0
 49
-3.0
 49
0.0
 49
-3.0
  0
LTYPE
  2
BORDER
 70
    64
  3
Border __ __ . __ __ . __ __ . __ __ . __ __ .
 72
    65
 73
     6
 40
3.5
 49
1.0
 49
-0.5
 49
1.0
 49
-0.5
 49
0.0
 49
-0.5
  0
LTYPE
  2
BORDER2
 70
    64
  3
Border (.5x) __.__.__.__.__.__.__.__.__.__.__.
 72
    65
 73
     6
 40
1.75
 49
0.5
 49
-0.25
 49
0.5
 49
-0.25
 49
0.0
 49
-0.25
  0
LTYPE
  2
BORDERX2
 70
    64
  3
Border (2x) ____  ____  .  ____  ____  .  ___
 72
    65
 73
     6
 40
7.0
 49
2.0
 49
-1.0
 49
2.0
 49
-1.0
 49
0.0
 49
-1.0
  0
LTYPE
  2
CENTER
 70
    64
  3
Center ____ _ ____ _ ____ _ ____ _ ____ _ ____
 72
    65
 73
     4
 40
12.0
 49
7.5
 49
-1.5
 49
1.5
 49
-1.5
  0
LTYPE
  2
CENTER2
 70
    64
  3
Center (.5x) ___ _ ___ _ ___ _ ___ _ ___ _ ___
 72
    65
 73
     4
 40
6.0
 49
3.75
 49
-0.75
 49
0.75
 49
-0.75
  0
LTYPE
  2
CENTERX2
 70
    64
  3
Center (2x) ________  __  ________  __  _____
 72
    65
 73
     4
 40
24.0
 49
15.0
 49
-3.0
 49
3.0
 49
-3.0
  0
LTYPE
  2
DASHDOT
 70
    64
  3
Dash dot __ . __ . __ . __ . __ . __ . __ . __
 72
    65
 73
     4
 40
6.0
 49
3.0
 49
-1.5
 49
0.0
 49
-1.5
  0
LTYPE
  2
DASHDOT2
 70
    64
  3
Dash dot (.5x) _._._._._._._._._._._._._._._.
 72
    65
 73
     4
 40
3.0
 49
1.5
 49
-0.75
 49
0.0
 49
-0.75
  0
LTYPE
  2
DASHDOTX2
 70
    64
  3
Dash dot (2x) ____  .  ____  .  ____  .  ___
 72
    65
 73
     4
 40
12.0
 49
6.0
 49
-3.0
 49
0.0
 49
-3.0
  0
LTYPE
  2
DASHED
 70
    64
  3
Dashed __ __ __ __ __ __ __ __ __ __ __ __ __ _
 72
    65
 73
     2
 40
4.5
 49
3.0
 49
-1.5
  0
LTYPE
  2
DASHED2
 70
    64
  3
Dashed (.5x) _ _ _ _ _ _ _ _ _ _ _ _ _ _ _ _ _
 72
    65
 73
     2
 40
2.25
 49
1.5
 49
-0.75
  0
LTYPE
  2
DASHEDX2
 70
    64
  3
Dashed (2x) ____  ____  ____  ____  ____  ___
 72
    65
 73
     2
 40
9.0
 49
6.0
 49
-3.0
  0
LTYPE
  2
DIVIDE
 70
    64
  3
Divide ____ . . ____ . . ____ . . ____ . . ____
 72
    65
 73
     6
 40
7.5
 49
3.0
 49
-1.5
 49
0.0
 49
-1.5
 49
0.0
 49
-1.5
  0
LTYPE
  2
DIVIDE2
 70
    64
  3
Divide (.5x) __..__..__..__..__..__..__..__.._
 72
    65
 73
     6
 40
3.75
 49
1.5
 49
-0.75
 49
0.0
 49
-0.75
 49
0.0
 49
-0.75
  0
LTYPE
  2
DIVIDEX2
 70
    64
  3
Divide (2x) ________  .  .  ________  .  .  _
 72
    65
 73
     6
 40
15.0
 49
6.0
 49
-3.0
 49
0.0
 49
-3.0
 49
0.0
 49
-3.0
  0
LTYPE
  2
DOT
 70
    64
  3
Dot . . . . . . . . . . . . . . . . . . . . . .
 72
    65
 73
     2
 40
1.5
 49
0.0
 49
-1.5
  0
LTYPE
  2
DOT2
 70
    64
  3
Dot (.5x) .....................................
 72
    65
 73
     2
 40
0.75
 49
0.0
 49
-0.75
  0
LTYPE
  2
DOTX2
 70
    64
  3
Dot (2x) .  .  .  .  .  .  .  .  .  .  .  .  . 
 72
    65
 73
     2
 40
3.0
 49
0.0
 49
-3.0
  0
LTYPE
  2
HIDDEN
 70
    64
  3
Hidden __ __ __ __ __ __ __ __ __ __ __ __ __ _
 72
    65
 73
     2
 40
4.5
 49
3.0
 49
-1.5
  0
LTYPE
  2
HIDDEN2
 70
    64
  3
Hidden (.5x) _ _ _ _ _ _ _ _ _ _ _ _ _ _ _ _ _
 72
    65
 73
     2
 40
2.25
 49
1.5
 49
-0.75
  0
LTYPE
  2
HIDDENX2
 70
    64
  3
Hidden (2x) ____ ____ ____ ____ ____ ____ ____
 72
    65
 73
     2
 40
9.0
 49
6.0
 49
-3.0
  0
LTYPE
  2
PHANTOM
 70
    64
  3
Phantom ______  __  __  ______  __  __  ______
 72
    65
 73
     6
 40
15.0
 49
7.5
 49
-1.5
 49
1.5
 49
-1.5
 49
1.5
 49
-1.5
  0
LTYPE
  2
PHANTOM2
 70
    64
  3
Phantom (.5x) ___ _ _ ___ _ _ ___ _ _ ___ _ _
 72
    65
 73
     6
 40
7.5
 49
3.75
 49
-0.75
 49
0.75
 49
-0.75
 49
0.75
 49
-0.75
  0
LTYPE
  2
PHANTOMX2
 70
    64
  3
Phantom (2x) ____________    ____    ____   _
 72
    65
 73
     6
 40
30.0
 49
15.0
 49
-3.0
 49
3.0
 49
-3.0
 49
3.0
 49
-3.0
  0
ENDTAB
  0
TABLE
  2
LAYER
 70
     1
  0
LAYER
  2
0
 70
     0
 62
     7
  6
CONTINUOUS
  0
ENDTAB
  0
TABLE
  2
STYLE
 70
     1
  0
STYLE
  2
STANDARD
 70
     0
 40
0.0
 41
1.0
 50
0.0
 71
     0
 42
0.2
  3
txt
  4
BIGFONT
  0
ENDTAB
  0
TABLE
  2
DIMSTYLE
 70
     0
  0
ENDTAB
  0
ENDSEC
  0
SECTION
  2
BLOCKS
  0
BLOCK
  8
0
  2
KOZU0001
 70
    64
 10
0
 20
0
  0
LINE
  8
0
  6
CONTINUOUS
 62
     7
 10
0
 20
0
 11
9.233197267069215
 21
6.934505479703745
  0
LINE
  8
0
  6
CONTINUOUS
 62
     7
 10
0
 20
0
 11
2.163651002819647
 21
2.327840637719242
  0
LINE
  8
0
  6
CONTINUOUS
 62
     7
 10
0
 20
0
 11
2.838649363643788
 21
1.429089740675619
  0
TEXT
  8
0
  6
CONTINUOUS
 62
     7
 10
11.29012744883329
 20
7.734505491624503
 40
3.200000047683716
 41
0.8643907436474909
  1
Ｍ３
  0
LINE
  8
0
  6
CONTINUOUS
 62
     7
 10
0
 20
0
 11
9.233197267069215
 21
6.934505479703745
  0
LINE
  8
0
  6
CONTINUOUS
 62
     7
 10
9.23319726706923
 20
6.934505479703745
 11
18.60412739971906
 21
6.934505479703745
  0
ENDBLK
  8
0
  0
ENDSEC
  0
SECTION
  2
ENTITIES
  0
LINE
  8
0
  6
CONTINUOUS
 62
     7
 10
-120.4036577629054
 20
164.4105355981215
 11
-112.4036577629054
 21
164.4105355981215
  0
LINE
  8
0
  6
CONTINUOUS
 62
     7
 10
-112.4036577629054
 20
164.4105355981215
 11
-112.4036577629054
 21
182.4105355981216
  0
LINE
  8
0
  6
CONTINUOUS
 62
     7
 10
-120.4036577629054
 20
164.4105355981215
 11
-120.4036577629054
 21
182.4105355981216
  0
LINE
  8
0
  6
CONTINUOUS
 62
     7
 10
-120.4036577629054
 20
182.4105355981216
 11
-112.4036577629054
 21
182.4105355981216
  0
LINE
  8
0
  6
CONTINUOUS
 62
     7
 10
-107.8583333333334
 20
167.395633951823
 11
-107.8583333333334
 21
159.5956339518229
  0
LINE
  8
0
  6
CONTINUOUS
 62
     7
 10
-109.3583333333327
 20
158.0956339518222
 11
-107.8583333333327
 21
159.5956340616298
  0
LINE
  8
0
  6
CENTER
 62
     7
 10
-108.8941268215419
 20
170.495633951823
 11
-105.0747973738355
 21
170.495633951823
  0
LINE
  8
0
  6
CONTINUOUS
 62
     7
 10
-108.8583333333334
 20
172.595633951823
 11
-108.8583333333334
 21
168.395633951823
  0
LINE
  8
0
  6
CENTER
 62
     7
 10
-108.8941268215419
 20
162.4956339518229
 11
-105.0747973738355
 21
162.4956339518229
  0
LINE
  8
0
  6
CONTINUOUS
 62
     7
 10
-108.8583333333334
 20
164.5956339518229
 11
-108.8583333333334
 21
160.3956339518229
  0
LINE
  8
0
  6
CONTINUOUS
 62
     7
 10
-124.8583333333334
 20
156.4956339518229
 11
-107.2583333333334
 21
156.4956339518229
  0
LINE
  8
0
  6
CONTINUOUS
 62
     7
 10
-107.8583333333334
 20
177.495633951823
 11
-106.2583333333334
 21
177.495633951823
  0
LINE
  8
0
  6
CONTINUOUS
 62
     7
 10
-113.9583333333333
 20
158.0956339518229
 11
-109.8583333333334
 21
158.0956339518229
  0
LINE
  8
0
  6
CONTINUOUS
 62
     7
 10
-118.7583333333334
 20
158.0956339518229
 11
-122.8583333333333
 21
158.0956339518229
  0
LINE
  8
0
  6
CONTINUOUS
 62
     7
 10
-122.8583333333334
 20
159.5956339518229
 11
-109.8583333333334
 21
159.5956339518229
  0
LINE
  8
0
  6
CONTINUOUS
 62
     7
 10
-122.8583333333334
 20
158.0956339518229
 11
-122.8583333333334
 21
159.5956339518229
  0
LINE
  8
0
  6
CONTINUOUS
 62
     7
 10
-109.8583333333334
 20
185.595633951823
 11
-109.8583333333334
 21
159.5956339518229
  0
LINE
  8
0
  6
CONTINUOUS
 62
     7
 10
-113.8583333333334
 20
156.4956339518229
 11
-113.8583333333334
 21
153.0956339518229
  0
LINE
  8
0
  6
CONTINUOUS
 62
     7
 10
-122.8583333333334
 20
185.595633951823
 11
-122.8583333333334
 21
159.5956339518229
  0
LINE
  8
0
  6
CONTINUOUS
 62
     7
 10
-109.8583333333334
 20
158.0956339518229
 11
-109.8583333333334
 21
159.5956339518229
  0
LINE
  8
0
  6
CENTER
 62
     7
 10
-116.3583333333334
 20
188.812186686198
 11
-116.3583333333334
 21
142.8416666666667
  0
LINE
  8
0
  6
CONTINUOUS
 62
     7
 10
-118.8583333333334
 20
153.0956339518229
 11
-113.8583333333334
 21
153.0956339518229
  0
LINE
  8
0
  6
CONTINUOUS
 62
     7
 10
-106.2583333333334
 20
177.495633951823
 11
-106.2583333333334
 21
157.4956339518229
  0
LINE
  8
0
  6
CONTINUOUS
 62
     7
 10
-114.9149576603593
 20
153.0956339518229
 11
-114.9149576603593
 21
156.4956339518229
  0
LINE
  8
0
  6
CONTINUOUS
 62
     7
 10
-117.8017090063074
 20
153.0956339518229
 11
-117.8017090063074
 21
156.4956339518229
  0
LINE
  8
0
  6
CONTINUOUS
 62
     7
 10
-124.1083333333334
 20
186.095633951823
 11
-108.6083333333334
 21
186.095633951823
  0
LINE
  8
0
  6
CONTINUOUS
 62
     7
 10
-124.8583333333334
 20
158.0956339518229
 11
-109.3583333333334
 21
158.0956339518229
  0
LINE
  8
0
  6
CONTINUOUS
 62
     7
 10
-124.8583333333334
 20
158.0956339518229
 11
-124.8583333333334
 21
156.4956339518229
  0
LINE
  8
0
  6
CONTINUOUS
 62
     7
 10
-107.8583333333334
 20
177.495633951823
 11
-107.8583333333334
 21
173.595633951823
  0
LINE
  8
0
  6
CONTINUOUS
 62
     7
 10
-108.6083333333334
 20
186.095633951823
 11
-108.6083333333334
 21
179.095633951823
  0
LINE
  8
0
  6
CONTINUOUS
 62
     7
 10
-118.8583333333334
 20
156.4956339518229
 11
-118.8583333333334
 21
153.0956339518229
  0
LINE
  8
0
  6
CONTINUOUS
 62
     7
 10
-108.8583333333334
 20
169.2956339518229
 11
-106.2583333333334
 21
169.2956339518229
  0
LINE
  8
0
  6
CONTINUOUS
 62
     7
 10
-108.8583333333334
 20
171.995633951823
 11
-106.2583333333334
 21
171.995633951823
  0
LINE
  8
0
  6
CONTINUOUS
 62
     7
 10
-108.8583333333334
 20
171.6956339518229
 11
-106.2583333333334
 21
171.6956339518229
  0
LINE
  8
0
  6
CONTINUOUS
 62
     7
 10
-108.8583333333334
 20
168.995633951823
 11
-106.2583333333334
 21
168.995633951823
  0
LINE
  8
0
  6
CONTINUOUS
 62
     7
 10
-124.1083333333334
 20
186.095633951823
 11
-124.1083333333334
 21
179.095633951823
  0
LINE
  8
0
  6
CONTINUOUS
 62
     7
 10
-124.1083333333334
 20
179.095633951823
 11
-122.8583333333334
 21
179.095633951823
  0
LINE
  8
0
  6
CONTINUOUS
 62
     7
 10
-108.6083333333334
 20
179.095633951823
 11
-109.8583333333334
 21
179.095633951823
  0
LINE
  8
0
  6
CONTINUOUS
 62
     7
 10
-124.8583333333334
 20
124.5108968977506
 11
-124.8583333333334
 21
114.5108968977506
  0
LINE
  8
0
  6
CONTINUOUS
 62
     7
 10
-113.8583333333332
 20
118.0675212247764
 11
-116.3583333333332
 21
116.6241455518023
  0
LINE
  8
0
  6
CONTINUOUS
 62
     7
 10
-116.3583333333334
 20
122.3976482436987
 11
-118.8583333333334
 21
120.9542725707247
  0
LINE
  8
0
  6
CENTER
 62
     7
 10
-109.3583333333333
 20
124.0108968977506
 11
-114.3583333333333
 21
124.0108968977506
  0
LINE
  8
0
  6
CONTINUOUS
 62
     7
 10
-113.8583333333333
 20
120.9542725707247
 11
-116.3583333333334
 21
122.3976482436988
  0
LINE
  8
0
  6
CONTINUOUS
 62
     7
 10
-118.8583333333334
 20
118.0675212247766
 11
-118.8583333333334
 21
120.9542725707247
  0
LINE
  8
0
  6
CONTINUOUS
 62
     7
 10
-113.8583333333334
 20
118.0675212247766
 11
-113.8583333333334
 21
120.9542725707247
  0
LINE
  8
0
  6
CONTINUOUS
 62
     7
 10
-106.2583333333333
 20
126.5108968977506
 11
-106.2583333333333
 21
112.5108968977506
  0
LINE
  8
0
  6
CONTINUOUS
 62
     7
 10
-122.8583333333334
 20
126.5108968977506
 11
-106.2583333333333
 21
126.5108968977506
  0
LINE
  8
0
  6
CONTINUOUS
 62
     7
 10
-116.3583333333334
 20
116.6241455518025
 11
-118.8583333333334
 21
118.0675212247766
  0
LINE
  8
0
  6
CENTER
 62
     7
 10
-109.3583333333333
 20
115.0108968977506
 11
-114.3583333333333
 21
115.0108968977506
  0
LINE
  8
0
  6
CENTER
 62
     7
 10
-116.3583333333334
 20
109.0108968977506
 11
-116.3583333333334
 21
129.0108968977506
  0
LINE
  8
0
  6
CENTER
 62
     7
 10
-120.8583333333334
 20
127.410890794235
 11
-120.8583333333334
 21
121.3380194470771
  0
LINE
  8
0
  6
CENTER
 62
     7
 10
-111.8583333333333
 20
126.5108968977506
 11
-111.8583333333333
 21
121.5108968977506
  0
LINE
  8
0
  6
CENTER
 62
     7
 10
-106.3583333333334
 20
119.5108968977506
 11
-126.3583333333334
 21
119.5108968977506
  0
LINE
  8
0
  6
CENTER
 62
     7
 10
-118.2143307589823
 20
124.0108968977506
 11
-123.4505674132396
 21
124.0108968977506
  0
LINE
  8
0
  6
CONTINUOUS
 62
     7
 10
-122.8583333333334
 20
112.5108968977506
 11
-106.2583333333333
 21
112.5108968977506
  0
LINE
  8
0
  6
DASHED
 62
     7
 10
-107.8583333333334
 20
126.5108968977506
 11
-107.8583333333334
 21
112.5108968977506
  0
LINE
  8
0
  6
CENTER
 62
     7
 10
-111.8583333333333
 20
112.5108968977506
 11
-111.8583333333333
 21
117.5108968977506
  0
LINE
  8
0
  6
CONTINUOUS
 62
     7
 10
-126.6083333333334
 20
121.6326591370225
 11
-126.6083333333334
 21
119.9108968977506
  0
LINE
  8
0
  6
CONTINUOUS
 62
     7
 10
-126.4888645586661
 20
118.3599350034273
 11
-124.8583333333334
 21
118.3599350034273
  0
LINE
  8
0
  6
CONTINUOUS
 62
     7
 10
-126.4888645586661
 20
121.9608968977506
 11
-124.8583333333334
 21
121.9608968977506
  0
LINE
  8
0
  6
CONTINUOUS
 62
     7
 10
-126.4888645586661
 20
117.0608968977506
 11
-124.8583333333334
 21
117.0608968977506
  0
LINE
  8
0
  6
CONTINUOUS
 62
     7
 10
-126.6083333333334
 20
119.1108968977506
 11
-126.6083333333334
 21
117.3891346584787
  0
LINE
  8
0
  6
CONTINUOUS
 62
     7
 10
-126.6083333333334
 20
117.3891346584787
 11
-126.4888645586661
 21
117.0608968977506
  0
LINE
  8
0
  6
CONTINUOUS
 62
     7
 10
-126.6083333333333
 20
121.6326591370225
 11
-126.4888645586661
 21
121.9608968977506
  0
LINE
  8
0
  6
CONTINUOUS
 62
     7
 10
-126.4888645586661
 20
120.661858792074
 11
-124.8583333333334
 21
120.661858792074
  0
LINE
  8
0
  6
CENTER
 62
     7
 10
-120.8583333333334
 20
117.4553677782741
 11
-120.8583333333334
 21
111.9697865214332
  0
LINE
  8
0
  6
CENTER
 62
     7
 10
-123.3437054407037
 20
115.0108968977506
 11
-118.2855720740062
 21
115.0108968977506
  0
LINE
  8
0
  6
CONTINUOUS
 62
     7
 10
-113.3583333333334
 20
186.595633951823
 11
-119.3583333333334
 21
186.595633951823
  0
LINE
  8
0
  6
CONTINUOUS
 62
     7
 10
-113.3583333333334
 20
186.595633951823
 11
-113.3583333333334
 21
186.095633951823
  0
LINE
  8
0
  6
CONTINUOUS
 62
     7
 10
-119.3583333333334
 20
186.595633951823
 11
-119.3583333333334
 21
186.095633951823
  0
LINE
  8
0
  6
DASHED
 62
     7
 10
-115.9583333333334
 20
186.595633951823
 11
-115.9583333333334
 21
194.095633951823
  0
LINE
  8
0
  6
DASHED
 62
     7
 10
-116.7583333333334
 20
186.595633951823
 11
-116.7583333333334
 21
194.095633951823
  0
LINE
  8
0
  6
CONTINUOUS
 62
     7
 10
-115.2333333333335
 20
193.8956339518227
 11
-115.4333333479745
 21
194.0956339518228
  0
LINE
  8
0
  6
CONTINUOUS
 62
     7
 10
-117.4833333333331
 20
193.8956339518227
 11
-117.283333318692
 21
194.0956339518227
  0
LINE
  8
0
  6
CONTINUOUS
 62
     7
 10
-117.2833333186923
 20
194.095633951823
 11
-115.4333333479744
 21
194.095633951823
  0
LINE
  8
0
  6
CONTINUOUS
 62
     7
 10
-114.6283333333333
 20
190.9956339518229
 11
-115.2333333333333
 21
192.0956339518229
  0
LINE
  8
0
  6
CONTINUOUS
 62
     7
 10
-118.0883333333333
 20
190.9956339518229
 11
-117.4833333333334
 21
192.0956339518229
  0
LINE
  8
0
  6
CONTINUOUS
 62
     7
 10
-118.0883333333334
 20
192.4956339518229
 11
-117.4833333333334
 21
193.5956339518229
  0
LINE
  8
0
  6
CONTINUOUS
 62
     7
 10
-114.6283333333334
 20
190.995633951823
 11
-114.6283333333334
 21
190.595633951823
  0
LINE
  8
0
  6
CONTINUOUS
 62
     7
 10
-118.0883333333334
 20
190.995633951823
 11
-118.0883333333334
 21
190.595633951823
  0
LINE
  8
0
  6
CONTINUOUS
 62
     7
 10
-117.4833333333334
 20
193.895633951823
 11
-117.4833333333334
 21
193.595633951823
  0
LINE
  8
0
  6
CONTINUOUS
 62
     7
 10
-115.2333333333334
 20
193.895633951823
 11
-115.2333333333334
 21
193.595633951823
  0
LINE
  8
0
  6
CONTINUOUS
 62
     7
 10
-115.2333333333334
 20
193.595633951823
 11
-114.6283333333333
 21
192.495633951823
  0
LINE
  8
0
  6
CONTINUOUS
 62
     7
 10
-118.0883333333334
 20
190.595633951823
 11
-114.6283333333334
 21
190.595633951823
  0
LINE
  8
0
  6
CONTINUOUS
 62
     7
 10
-118.0883333333334
 20
190.995633951823
 11
-114.6283333333334
 21
190.995633951823
  0
LINE
  8
0
  6
CONTINUOUS
 62
     7
 10
-117.4833333333334
 20
193.595633951823
 11
-115.2333333333334
 21
193.595633951823
  0
LINE
  8
0
  6
CONTINUOUS
 62
     7
 10
-117.6083333333334
 20
190.595633951823
 11
-117.6083333333334
 21
188.995633951823
  0
LINE
  8
0
  6
CONTINUOUS
 62
     7
 10
-118.0883333333334
 20
192.495633951823
 11
-114.6283333333334
 21
192.495633951823
  0
LINE
  8
0
  6
CONTINUOUS
 62
     7
 10
-115.1083333333334
 20
190.595633951823
 11
-115.1083333333334
 21
188.995633951823
  0
LINE
  8
0
  6
CONTINUOUS
 62
     7
 10
-118.0883333333334
 20
192.095633951823
 11
-114.6283333333334
 21
192.095633951823
  0
LINE
  8
0
  6
CONTINUOUS
 62
     7
 10
-114.2365710940615
 20
188.5956339518229
 11
-113.9083333333334
 21
188.4761651771557
  0
LINE
  8
0
  6
CONTINUOUS
 62
     7
 10
-118.8083333333334
 20
188.4761651771557
 11
-118.8083333333334
 21
186.595633951823
  0
LINE
  8
0
  6
CONTINUOUS
 62
     7
 10
-118.8083333333334
 20
186.595633951823
 11
-113.9083333333334
 21
186.595633951823
  0
LINE
  8
0
  6
CENTER
 62
     7
 10
-116.3583333333334
 20
194.6956190301683
 11
-116.3583333333334
 21
185.9249345504313
  0
LINE
  8
0
  6
CONTINUOUS
 62
     7
 10
-114.6283333333334
 20
192.495633951823
 11
-114.6283333333334
 21
192.095633951823
  0
LINE
  8
0
  6
CONTINUOUS
 62
     7
 10
-117.5092952276567
 20
188.4761651771557
 11
-117.5092952276567
 21
186.595633951823
  0
LINE
  8
0
  6
CONTINUOUS
 62
     7
 10
-118.4800955726052
 20
188.5956339518228
 11
-118.8083333333333
 21
188.4761651771557
  0
LINE
  8
0
  6
CONTINUOUS
 62
     7
 10
-118.0883333333334
 20
192.495633951823
 11
-118.0883333333334
 21
192.095633951823
  0
LINE
  8
0
  6
CONTINUOUS
 62
     7
 10
-113.9083333333334
 20
188.4761651771557
 11
-113.9083333333334
 21
186.595633951823
  0
LINE
  8
0
  6
CONTINUOUS
 62
     7
 10
-115.2073714390101
 20
188.4761651771557
 11
-115.2073714390101
 21
186.595633951823
  0
LINE
  8
0
  6
CONTINUOUS
 62
     7
 10
-118.4800955726053
 20
188.595633951823
 11
-114.2365710940615
 21
188.595633951823
  0
LINE
  8
0
  6
CONTINUOUS
 62
     7
 10
-124.1083333333334
 20
179.095633951823
 11
-124.6083333333334
 21
179.095633951823
  0
LINE
  8
0
  6
CONTINUOUS
 62
     7
 10
-124.6083333333334
 20
179.095633951823
 11
-124.6083333333334
 21
185.095633951823
  0
LINE
  8
0
  6
CONTINUOUS
 62
     7
 10
-124.1083333333334
 20
185.095633951823
 11
-124.6083333333334
 21
185.095633951823
  0
LINE
  8
0
  6
CONTINUOUS
 62
     7
 10
-126.6083333333334
 20
184.2173961910949
 11
-126.6083333333334
 21
182.095633951823
  0
LINE
  8
0
  6
CONTINUOUS
 62
     7
 10
-126.4888645586661
 20
180.9446720574996
 11
-124.6083333333334
 21
180.9446720574996
  0
LINE
  8
0
  6
CONTINUOUS
 62
     7
 10
-124.6083333333334
 20
184.5456339518229
 11
-124.6083333333334
 21
179.645633951823
  0
LINE
  8
0
  6
CONTINUOUS
 62
     7
 10
-126.4888645586661
 20
184.5456339518229
 11
-124.6083333333334
 21
184.5456339518229
  0
LINE
  8
0
  6
CONTINUOUS
 62
     7
 10
-126.4888645586661
 20
179.645633951823
 11
-124.6083333333334
 21
179.645633951823
  0
LINE
  8
0
  6
CONTINUOUS
 62
     7
 10
-126.6083333333334
 20
182.095633951823
 11
-126.6083333333334
 21
179.973871712551
  0
LINE
  8
0
  6
CONTINUOUS
 62
     7
 10
-126.6083333333334
 20
179.973871712551
 11
-126.4888645586662
 21
179.6456339518229
  0
LINE
  8
0
  6
CONTINUOUS
 62
     7
 10
-126.6083333333331
 20
184.2173961910948
 11
-126.4888645586659
 21
184.5456339518229
  0
LINE
  8
0
  6
CONTINUOUS
 62
     7
 10
-126.4888645586661
 20
183.2465958461463
 11
-124.6083333333334
 21
183.2465958461463
  0
LINE
  8
0
  6
CONTINUOUS
 62
     7
 10
-112.0583333333333
 20
123.8108968977506
 11
-112.0583333333333
 21
122.77185063606
  0
LINE
  8
0
  6
CONTINUOUS
 62
     7
 10
-111.6583333333333
 20
123.8108968977506
 11
-111.6583333333333
 21
122.77185063606
  0
LINE
  8
0
  6
CONTINUOUS
 62
     7
 10
-110.754401309778
 20
124.2108968977506
 11
-110.754401309778
 21
123.8108968977506
  0
LINE
  8
0
  6
CONTINUOUS
 62
     7
 10
-113.0468062782202
 20
124.2108968977506
 11
-112.0583333333333
 21
124.2108968977506
  0
LINE
  8
0
  6
CONTINUOUS
 62
     7
 10
-111.6583333333333
 20
124.2108968977506
 11
-110.745720363652
 21
124.2108968977506
  0
LINE
  8
0
  6
CONTINUOUS
 62
     7
 10
-112.0583333333333
 20
125.123509867432
 11
-112.0583333333333
 21
124.2108968977506
  0
LINE
  8
0
  6
CONTINUOUS
 62
     7
 10
-112.0583333333333
 20
122.7916323042356
 11
-111.6583333333333
 21
122.7916323042356
  0
LINE
  8
0
  6
CONTINUOUS
 62
     7
 10
-113.0468062782202
 20
123.8108968977506
 11
-112.0583333333333
 21
123.8108968977506
  0
LINE
  8
0
  6
CONTINUOUS
 62
     7
 10
-111.6583333333333
 20
125.123509867432
 11
-111.6583333333333
 21
124.2108968977506
  0
LINE
  8
0
  6
CONTINUOUS
 62
     7
 10
-112.0583333333333
 20
125.1343383646902
 11
-111.6583333333333
 21
125.1343383646902
  0
LINE
  8
0
  6
CONTINUOUS
 62
     7
 10
-111.6583333333333
 20
123.8108968977506
 11
-110.745720363652
 21
123.8108968977506
  0
LINE
  8
0
  6
CONTINUOUS
 62
     7
 10
-113.0621416081362
 20
124.2108968977506
 11
-113.0621416081362
 21
123.8108968977506
  0
LINE
  8
0
  6
CONTINUOUS
 62
     7
 10
-121.0583333333334
 20
114.8108968977506
 11
-121.0583333333334
 21
113.77185063606
  0
LINE
  8
0
  6
CONTINUOUS
 62
     7
 10
-120.6583333333334
 20
114.8108968977506
 11
-120.6583333333334
 21
113.77185063606
  0
LINE
  8
0
  6
CONTINUOUS
 62
     7
 10
-119.754401309778
 20
115.2108968977506
 11
-119.754401309778
 21
114.8108968977506
  0
LINE
  8
0
  6
CONTINUOUS
 62
     7
 10
-122.0468062782203
 20
115.2108968977506
 11
-121.0583333333334
 21
115.2108968977506
  0
LINE
  8
0
  6
CONTINUOUS
 62
     7
 10
-120.6583333333334
 20
115.2108968977506
 11
-119.745720363652
 21
115.2108968977506
  0
LINE
  8
0
  6
CONTINUOUS
 62
     7
 10
-121.0583333333334
 20
116.123509867432
 11
-121.0583333333334
 21
115.2108968977506
  0
LINE
  8
0
  6
CONTINUOUS
 62
     7
 10
-121.0583333333334
 20
113.7916323042356
 11
-120.6583333333334
 21
113.7916323042356
  0
LINE
  8
0
  6
CONTINUOUS
 62
     7
 10
-122.0468062782203
 20
114.8108968977506
 11
-121.0583333333334
 21
114.8108968977506
  0
LINE
  8
0
  6
CONTINUOUS
 62
     7
 10
-120.6583333333334
 20
116.123509867432
 11
-120.6583333333334
 21
115.2108968977506
  0
LINE
  8
0
  6
CONTINUOUS
 62
     7
 10
-121.0583333333334
 20
116.1343383646902
 11
-120.6583333333334
 21
116.1343383646902
  0
LINE
  8
0
  6
CONTINUOUS
 62
     7
 10
-120.6583333333334
 20
114.8108968977506
 11
-119.745720363652
 21
114.8108968977506
  0
LINE
  8
0
  6
CONTINUOUS
 62
     7
 10
-122.0621416081362
 20
115.2108968977506
 11
-122.0621416081362
 21
114.8108968977506
  0
LINE
  8
0
  6
CONTINUOUS
 62
     7
 10
-112.0583333333333
 20
114.8108968977506
 11
-112.0583333333333
 21
113.77185063606
  0
LINE
  8
0
  6
CONTINUOUS
 62
     7
 10
-111.6583333333333
 20
114.8108968977506
 11
-111.6583333333333
 21
113.77185063606
  0
LINE
  8
0
  6
CONTINUOUS
 62
     7
 10
-110.7544013097779
 20
115.2108968977506
 11
-110.7544013097779
 21
114.8108968977506
  0
LINE
  8
0
  6
CONTINUOUS
 62
     7
 10
-113.0468062782202
 20
115.2108968977506
 11
-112.0583333333333
 21
115.2108968977506
  0
LINE
  8
0
  6
CONTINUOUS
 62
     7
 10
-111.6583333333333
 20
115.2108968977506
 11
-110.7457203636519
 21
115.2108968977506
  0
LINE
  8
0
  6
CONTINUOUS
 62
     7
 10
-112.0583333333333
 20
116.123509867432
 11
-112.0583333333333
 21
115.2108968977506
  0
LINE
  8
0
  6
CONTINUOUS
 62
     7
 10
-112.0583333333333
 20
113.7916323042356
 11
-111.6583333333333
 21
113.7916323042356
  0
LINE
  8
0
  6
CONTINUOUS
 62
     7
 10
-113.0468062782202
 20
114.8108968977506
 11
-112.0583333333333
 21
114.8108968977506
  0
LINE
  8
0
  6
CONTINUOUS
 62
     7
 10
-111.6583333333333
 20
116.123509867432
 11
-111.6583333333333
 21
115.2108968977506
  0
LINE
  8
0
  6
CONTINUOUS
 62
     7
 10
-112.0583333333333
 20
116.1343383646902
 11
-111.6583333333333
 21
116.1343383646902
  0
LINE
  8
0
  6
CONTINUOUS
 62
     7
 10
-111.6583333333333
 20
114.8108968977506
 11
-110.7457203636519
 21
114.8108968977506
  0
LINE
  8
0
  6
CONTINUOUS
 62
     7
 10
-113.0621416081361
 20
115.2108968977506
 11
-113.0621416081361
 21
114.8108968977506
  0
LINE
  8
0
  6
CONTINUOUS
 62
     7
 10
-121.0583333333333
 20
123.8108968977506
 11
-121.0583333333333
 21
122.77185063606
  0
LINE
  8
0
  6
CONTINUOUS
 62
     7
 10
-120.6583333333333
 20
123.8108968977506
 11
-120.6583333333333
 21
122.77185063606
  0
LINE
  8
0
  6
CONTINUOUS
 62
     7
 10
-119.754401309778
 20
124.2108968977506
 11
-119.754401309778
 21
123.8108968977506
  0
LINE
  8
0
  6
CONTINUOUS
 62
     7
 10
-122.0468062782202
 20
124.2108968977506
 11
-121.0583333333333
 21
124.2108968977506
  0
LINE
  8
0
  6
CONTINUOUS
 62
     7
 10
-120.6583333333333
 20
124.2108968977506
 11
-119.745720363652
 21
124.2108968977506
  0
LINE
  8
0
  6
CONTINUOUS
 62
     7
 10
-121.0583333333333
 20
125.123509867432
 11
-121.0583333333333
 21
124.2108968977506
  0
LINE
  8
0
  6
CONTINUOUS
 62
     7
 10
-121.0583333333333
 20
122.7916323042356
 11
-120.6583333333333
 21
122.7916323042356
  0
LINE
  8
0
  6
CONTINUOUS
 62
     7
 10
-122.0468062782202
 20
123.8108968977506
 11
-121.0583333333333
 21
123.8108968977506
  0
LINE
  8
0
  6
CONTINUOUS
 62
     7
 10
-120.6583333333333
 20
125.123509867432
 11
-120.6583333333333
 21
124.2108968977506
  0
LINE
  8
0
  6
CONTINUOUS
 62
     7
 10
-121.0583333333333
 20
125.1343383646902
 11
-120.6583333333333
 21
125.1343383646902
  0
LINE
  8
0
  6
CONTINUOUS
 62
     7
 10
-120.6583333333333
 20
123.8108968977506
 11
-119.745720363652
 21
123.8108968977506
  0
LINE
  8
0
  6
CONTINUOUS
 62
     7
 10
-122.0621416081362
 20
124.2108968977506
 11
-122.0621416081362
 21
123.8108968977506
  0
LINE
  8
0
  6
CONTINUOUS
 62
     7
 10
-70.25833333333335
 20
156.4956339518229
 11
-56.25833333333336
 21
156.4956339518229
  0
LINE
  8
0
  6
CONTINUOUS
 62
     7
 10
-56.25833333333336
 20
175.4956339518229
 11
-56.25833333333336
 21
156.4956339518229
  0
LINE
  8
0
  6
CONTINUOUS
 62
     7
 10
-70.25833333333335
 20
182.495633951823
 11
-70.25833333333335
 21
156.4956339518229
  0
LINE
  8
0
  6
CONTINUOUS
 62
     7
 10
-68.25833333333335
 20
177.4956339518229
 11
-58.25833333333335
 21
177.4956339518229
  0
LINE
  8
0
  6
CONTINUOUS
 62
     7
 10
-56.25833333333336
 20
159.5956358591716
 11
-56.25833333333336
 21
185.7956461588541
  0
LINE
  8
0
  6
CENTER
 62
     7
 10
-63.25833333333335
 20
150.3372715972747
 11
-63.25833333333335
 21
176.0990232184441
  0
LINE
  8
0
  6
CONTINUOUS
 62
     7
 10
-64.70170900630745
 20
153.0956358591716
 11
-64.70170900630745
 21
156.4956339518229
  0
LINE
  8
0
  6
CONTINUOUS
 62
     7
 10
-61.81495766035934
 20
153.0956358591716
 11
-61.81495766035934
 21
156.4956339518229
  0
LINE
  8
0
  6
CONTINUOUS
 62
     7
 10
-56.55835164388027
 20
186.095633951823
 11
-69.96103108723966
 21
186.095633951823
  0
LINE
  8
0
  6
CONTINUOUS
 62
     7
 10
-60.37495766035934
 20
153.0956358591716
 11
-66.14170900630745
 21
153.0956358591716
  0
LINE
  8
0
  6
CONTINUOUS
 62
     7
 10
-70.25833333333335
 20
159.5956358591716
 11
-70.25833333333335
 21
185.7956461588541
  0
LINE
  8
0
  6
CENTER
 62
     7
 10
-57.75833333333335
 20
182.095633951823
 11
-68.75833333333335
 21
182.095633951823
  0
LINE
  8
0
  6
CONTINUOUS
 62
     7
 10
-65.90408464439796
 20
179.095633951823
 11
-60.61258202226884
 21
179.095633951823
  0
LINE
  8
0
  6
CONTINUOUS
 62
     7
 10
-66.14170900630745
 20
153.0956358591716
 11
-66.14170900630745
 21
156.4956339518229
  0
LINE
  8
0
  6
CONTINUOUS
 62
     7
 10
-60.37495766035934
 20
153.0956358591716
 11
-60.37495766035934
 21
156.4956339518229
  0
LINE
  8
0
  6
PHANTOM
 62
     7
 10
-60.37495766035934
 20
143.0956358591716
 11
-66.14170900630745
 21
143.0956358591716
  0
LINE
  8
0
  6
PHANTOM
 62
     7
 10
-66.14170900630745
 20
153.0956358591716
 11
-66.14170900630745
 21
143.0956358591716
  0
LINE
  8
0
  6
PHANTOM
 62
     7
 10
-64.70170900630745
 20
153.0956358591716
 11
-64.70170900630745
 21
143.0956358591716
  0
LINE
  8
0
  6
PHANTOM
 62
     7
 10
-61.81495766035934
 20
153.0956358591716
 11
-61.81495766035934
 21
143.0956358591716
  0
LINE
  8
0
  6
PHANTOM
 62
     7
 10
-60.37495766035934
 20
153.0956358591716
 11
-60.37495766035934
 21
143.0956358591716
  0
LINE
  8
0
  6
CONTINUOUS
 62
     7
 10
-61.75833333333335
 20
196.1956343332927
 11
-64.75833333333335
 21
196.1956343332927
  0
LINE
  8
0
  6
CENTER
 62
     7
 10
-63.25833333333335
 20
181.6484908739726
 11
-63.25833333333335
 21
197.9247154871623
  0
LINE
  8
0
  6
CONTINUOUS
 62
     7
 10
-59.25833314259856
 20
189.1956338564555
 11
-67.25833352406824
 21
189.1956338564555
  0
LINE
  8
0
  6
CONTINUOUS
 62
     7
 10
-61.50833333333335
 20
191.1956338564555
 11
-65.00833333333335
 21
191.1956338564555
  0
LINE
  8
0
  6
CONTINUOUS
 62
     7
 10
-61.65833330949155
 20
189.1956338564555
 11
-61.65833330949155
 21
191.1956338564555
  0
LINE
  8
0
  6
CONTINUOUS
 62
     7
 10
-64.85833335717524
 20
189.1956338564555
 11
-64.85833335717524
 21
191.1956338564555
  0
LINE
  8
0
  6
CONTINUOUS
 62
     7
 10
-59.25833314259856
 20
186.6956339756648
 11
-67.25833352406824
 21
186.6956339756648
  0
LINE
  8
0
  6
CONTINUOUS
 62
     7
 10
-65.00833332906201
 20
193.6956339793455
 11
-64.758333389214
 21
196.1956334152639
  0
LINE
  8
0
  6
CONTINUOUS
 62
     7
 10
-61.50833333760478
 20
193.6956339793454
 11
-61.75833327745279
 21
196.1956334152638
  0
LINE
  8
0
  6
CONTINUOUS
 62
     7
 10
-59.30833333333334
 20
186.095633951823
 11
-67.20833333333346
 21
186.095633951823
  0
LINE
  8
0
  6
CONTINUOUS
 62
     7
 10
-61.50833334131163
 20
191.1956342591153
 11
-61.75833332860673
 21
193.6956341695044
  0
LINE
  8
0
  6
CONTINUOUS
 62
     7
 10
-65.00833332535531
 20
191.1956342591153
 11
-64.75833333806021
 21
193.6956341695044
  0
LINE
  8
0
  6
CONTINUOUS
 62
     7
 10
-61.50833333333335
 20
193.6956338564555
 11
-65.00833333333335
 21
193.6956338564555
  0
LINE
  8
0
  6
CONTINUOUS
 62
     7
 10
-59.25833314259856
 20
186.6956339756648
 11
-59.25833314259856
 21
189.1956338564555
  0
LINE
  8
0
  6
CONTINUOUS
 62
     7
 10
-59.3083333333333
 20
186.0956339518229
 11
-59.30833333333342
 21
186.6956339756647
  0
LINE
  8
0
  6
CONTINUOUS
 62
     7
 10
-67.25833352406824
 20
186.6956339756648
 11
-67.25833352406824
 21
189.1956338564555
  0
LINE
  8
0
  6
CONTINUOUS
 62
     7
 10
-67.20833333333346
 20
186.095633951823
 11
-67.20833333333346
 21
186.6956339756648
  0
LINE
  8
0
  6
CONTINUOUS
 62
     7
 10
-61.27905927549705
 20
186.6956339756648
 11
-61.27905927549705
 21
189.1956338564555
  0
LINE
  8
0
  6
CONTINUOUS
 62
     7
 10
-65.23760739116966
 20
186.6956339756648
 11
-65.23760739116966
 21
189.1956338564555
  0
LINE
  8
0
  6
CONTINUOUS
 62
     7
 10
0
 20
274.5
 11
0
 21
0
  0
LINE
  8
0
  6
CONTINUOUS
 62
     7
 10
-176.8
 20
0
 11
0
 21
0
  0
LINE
  8
0
  6
CONTINUOUS
 62
     7
 10
-176.8
 20
274.5
 11
-176.8
 21
0
  0
LINE
  8
0
  6
CONTINUOUS
 62
     7
 10
-176.8
 20
274.5
 11
0
 21
274.5
  0
LINE
  8
0
  6
CENTER
 62
     7
 10
-63.25833333333335
 20
166.5356339518229
 11
-63.25833333333335
 21
158.4556339518229
  0
LINE
  8
0
  6
CENTER
 62
     7
 10
-67.29833333333336
 20
162.4956339518229
 11
-59.21833333333336
 21
162.4956339518229
  0
LINE
  8
0
  6
CENTER
 62
     7
 10
-63.25833333333335
 20
174.5356339518229
 11
-63.25833333333335
 21
166.4556339518229
  0
LINE
  8
0
  6
CENTER
 62
     7
 10
-67.29833333333336
 20
170.4956339518229
 11
-59.21833333333336
 21
170.4956339518229
  0
LINE
  8
0
  6
CONTINUOUS
 62
     7
 10
-61.6
 20
38.7
 11
-61.6
 21
0
  0
LINE
  8
0
  6
CONTINUOUS
 62
     7
 10
-61.6
 20
12.7
 11
0
 21
12.7
  0
LINE
  8
0
  6
CONTINUOUS
 62
     7
 10
-61.6
 20
25.2
 11
0
 21
25.2
  0
LINE
  8
0
  6
CONTINUOUS
 62
     7
 10
-61.6
 20
38.7
 11
0
 21
38.7
  0
LINE
  8
0
  6
CONTINUOUS
 62
     7
 10
-176.6
 20
0.2
 11
0
 21
0.2
  0
LINE
  8
0
  6
CONTINUOUS
 62
     7
 10
-176.6
 20
274.5
 11
-176.6
 21
0.2
  0
LINE
  8
0
  6
CONTINUOUS
 62
     7
 10
0.2
 20
274.7
 11
0.2
 21
0
  0
LINE
  8
0
  6
CONTINUOUS
 62
     7
 10
-176.8
 20
274.7
 11
0.2
 21
274.7
  0
ARC
  8
0
  6
CONTINUOUS
 62
     7
 10
-107.8583333333334
 20
168.395633951823
 40
1
 50
180.0000000000004
 51
270.0000000000015
  0
ARC
  8
0
  6
CONTINUOUS
 62
     7
 10
-107.8583333333334
 20
172.595633951823
 40
1
 50
90.00000000000019
 51
180.0000000000004
  0
ARC
  8
0
  6
CONTINUOUS
 62
     7
 10
-107.8583333333334
 20
160.3956339518229
 40
1
 50
180.0000000000004
 51
270.0000000000015
  0
ARC
  8
0
  6
CONTINUOUS
 62
     7
 10
-107.8583333333334
 20
164.5956339518229
 40
1
 50
90.00000000000019
 51
180.0000000000004
  0
ARC
  8
0
  6
CONTINUOUS
 62
     7
 10
-122.3583333333334
 20
185.595633951823
 40
0.5
 50
89.99999749552153
 51
180.0000000000004
  0
ARC
  8
0
  6
CONTINUOUS
 62
     7
 10
-110.3583333333334
 20
185.595633951823
 40
0.5
 50
0
 51
90.00000250447847
  0
ARC
  8
0
  6
CONTINUOUS
 62
     7
 10
-107.2583333333334
 20
157.4956339518229
 40
1
 50
270.0000000000005
 51
360
  0
CIRCLE
  8
0
  6
PHANTOM
 62
     7
 10
-116.3583333333334
 20
119.5108968977506
 40
2.886751345948127
  0
ARC
  8
0
  6
CONTINUOUS
 62
     7
 10
-122.8583333333334
 20
124.5108968977506
 40
2
 50
90.00000000000041
 51
180.0000000000011
  0
ARC
  8
0
  6
CONTINUOUS
 62
     7
 10
-122.8583333333334
 20
114.5108968977506
 40
2
 50
180.0000000000011
 51
270.0000000000011
  0
CIRCLE
  8
0
  6
CONTINUOUS
 62
     7
 10
-116.3583333333334
 20
119.5108968977506
 40
1.22950005531311
  0
CIRCLE
  8
0
  6
CONTINUOUS
 62
     7
 10
-120.8583333333334
 20
115.0108968977506
 40
1.899999976158142
  0
CIRCLE
  8
0
  6
CONTINUOUS
 62
     7
 10
-116.3583333333334
 20
119.5108968977506
 40
1.5
  0
CIRCLE
  8
0
  6
CONTINUOUS
 62
     7
 10
-111.8583333333333
 20
124.0108968977506
 40
1.899999976158142
  0
CIRCLE
  8
0
  6
CONTINUOUS
 62
     7
 10
-116.3583333333334
 20
119.5108968977506
 40
3
  0
ARC
  8
0
  6
CONTINUOUS
 62
     7
 10
-124.7829702234456
 20
117.7104159505889
 40
1.825363109887769
 50
159.1556749939912
 51
180.0000014790876
  0
ARC
  8
0
  6
CONTINUOUS
 62
     7
 10
-124.7829702234494
 20
121.3113778449123
 40
1.825363109883962
 50
179.9999968974428
 51
200.8443250060551
  0
ARC
  8
0
  6
CONTINUOUS
 62
     7
 10
-121.0044168537568
 20
119.5108968977506
 40
5.603916479576535
 50
168.1479467387895
 51
180.0000000000011
  0
ARC
  8
0
  6
CONTINUOUS
 62
     7
 10
-121.0044168537568
 20
119.5108968977506
 40
5.603916479576535
 50
180.0000000000011
 51
191.8520532612118
  0
ARC
  8
0
  6
CONTINUOUS
 62
     7
 10
-118.0083333333334
 20
188.995633951823
 40
0.4
 50
270.0000000000005
 51
360
  0
ARC
  8
0
  6
CONTINUOUS
 62
     7
 10
-114.7083333333334
 20
188.995633951823
 40
0.4
 50
180.0000000000004
 51
270.0000000000005
  0
ARC
  8
0
  6
CONTINUOUS
 62
     7
 10
-116.3583333333334
 20
182.9917174722464
 40
5.603916479576535
 50
78.14794673878969
 51
85.90682377706831
  0
ARC
  8
0
  6
CONTINUOUS
 62
     7
 10
-116.3583333333334
 20
182.9917174722464
 40
5.603916479576535
 50
94.09317622293199
 51
101.8520532612105
  0
ARC
  8
0
  6
CONTINUOUS
 62
     7
 10
-118.1588142804951
 20
186.770270841939
 40
1.825363109883962
 50
69.15567499394618
 51
90.00000310255719
  0
ARC
  8
0
  6
CONTINUOUS
 62
     7
 10
-114.5578523861717
 20
186.7702708419351
 40
1.825363109887769
 50
89.99999852091403
 51
110.8443250060088
  0
ARC
  8
0
  6
CONTINUOUS
 62
     7
 10
-124.7829702234456
 20
180.2951530046612
 40
1.825363109887769
 50
159.1556749939906
 51
180.0000014790867
  0
ARC
  8
0
  6
CONTINUOUS
 62
     7
 10
-124.7829702234494
 20
183.8961148989847
 40
1.825363109883962
 50
179.9999968974428
 51
200.8443250060555
  0
ARC
  8
0
  6
CONTINUOUS
 62
     7
 10
-121.0044168537568
 20
182.095633951823
 40
5.603916479576535
 50
168.1479467387895
 51
180.0000000000013
  0
ARC
  8
0
  6
CONTINUOUS
 62
     7
 10
-121.0044168537568
 20
182.095633951823
 40
5.603916479576535
 50
180.000000000001
 51
191.8520532612118
  0
CIRCLE
  8
0
  6
CONTINUOUS
 62
     7
 10
-111.8583333333333
 20
124.0108968977506
 40
1.75
  0
CIRCLE
  8
0
  6
CONTINUOUS
 62
     7
 10
-120.8583333333334
 20
115.0108968977506
 40
1.75
  0
CIRCLE
  8
0
  6
CONTINUOUS
 62
     7
 10
-111.8583333333333
 20
115.0108968977506
 40
2
  0
CIRCLE
  8
0
  6
CONTINUOUS
 62
     7
 10
-120.8583333333334
 20
124.0108968977506
 40
2
  0
CIRCLE
  8
0
  6
CONTINUOUS
 62
     7
 10
-63.25833333333335
 20
162.4956339518229
 40
1.5
  0
CIRCLE
  8
0
  6
CONTINUOUS
 62
     7
 10
-63.25833333333335
 20
170.4956339518229
 40
1.5
  0
CIRCLE
  8
0
  6
CONTINUOUS
 62
     7
 10
-63.25833333333335
 20
162.4956339518229
 40
1.2
  0
CIRCLE
  8
0
  6
CONTINUOUS
 62
     7
 10
-63.25833333333335
 20
170.4956339518229
 40
1.2
  0
ARC
  8
0
  6
CONTINUOUS
 62
     7
 10
-69.95833028157554
 20
185.7956461588541
 40
0.300000011920929
 50
90.00000000000019
 51
180.0000025044824
  0
ARC
  8
0
  6
CONTINUOUS
 62
     7
 10
-63.25833333333335
 20
182.095633951823
 40
4
 50
311.4096221092723
 51
228.5903778907305
  0
ARC
  8
0
  6
CONTINUOUS
 62
     7
 10
-56.55835164388027
 20
185.7956461588541
 40
0.300000011920929
 50
359.9999974955246
 51
90.00000000000019
  0
ARC
  8
0
  6
CONTINUOUS
 62
     7
 10
-68.25833333333335
 20
175.4956339518229
 40
2
 50
90.00000000000019
 51
180.0000000000015
  0
ARC
  8
0
  6
CONTINUOUS
 62
     7
 10
-58.25833333333335
 20
175.4956339518229
 40
2
 50
0
 51
90.00000000000019
  0
TEXT
  8
0
  6
CONTINUOUS
 62
     7
 10
-116.178441350163
 20
173.048131830023
 40
1
 41
0.8494700072758558
  1
ＵＭＣＤ－１０Ｐ
 50
90.00000000000003
  0
TEXT
  8
0
  6
CONTINUOUS
 62
     7
 10
-116.178441350163
 20
164.4251554063555
 40
1.5
 41
0.8594350199193058
  1
ＳＴＡＲ
 50
90.00000000000003
  0
TEXT
  8
0
  6
CONTINUOUS
 62
     7
 10
-118.6975376105508
 20
165.6581178778128
 40
1
 41
0.8458650135877966
  1
ＭＩＮＩ－ＣＹＬＩＮＤＥＲ
 50
90.00000000000003
  0
TEXT
  8
0
  6
CONTINUOUS
 62
     7
 10
-113.8075272227392
 20
167.7508513259024
 40
1
 41
0.8475800124986109
  1
ＳＴＡＲＴＥＣＨＮＯ
 50
90.00000000000003
  0
TEXT
  8
0
  6
CONTINUOUS
 62
     7
 10
-57.59114651229793
 20
29.6000098150688
 40
4.800000190734863
 41
0.8440946691665613
  1
マイクロミニシリンダー
  0
TEXT
  8
0
  6
CONTINUOUS
 62
     7
 10
-50.39114622619564
 20
16.25305620100389
 40
4.800000190734863
 41
0.8455654001411271
  1
ＵＭＣＤ－１０Ｐ
  0
TEXT
  8
0
  6
CONTINUOUS
 62
     7
 10
-45.01708351442572
 20
3.336649477715275
 40
4.800000190734863
 41
0.847411023324896
  1
２００１２５
  0
INSERT
  8
0
  6
CONTINUOUS
 62
     7
  2
KOZU0001
 10
-62.05893265200582
 20
163.3964324895834
  0
ENDSEC
  0
EOF
