  0
SECTION
  2
HEADER
  9
$EXTMAX
 10
1.2182922
 20
274.528
 30
0
  9
$EXTMIN
 10
-177.2301
 20
-1.0560455
 30
0
  9
$LIMMAX
 10
1.2182922
 20
274.528
  9
$LIMMIN
 10
-177.2301
 20
-1.0560455
  9
$PLIMMAX
 10
1.2182922
 20
274.528
  9
$PLIMMIN
 10
-177.2301
 20
-1.0560455
  9
$PEXTMAX
 10
1.2182922
 20
274.528
 30
0
  9
$PEXTMIN
 10
-177.2301
 20
-1.0560455
 30
0
  9
$TEXTSIZE
 40
3.2
  9
$DIMSHO
 70
     0
  9
$DIMASZ
 40
1.0
  9
$DIMTAD
 70
     1
  9
$DIMTIH
 70
     0
  9
$DIMTOH
 70
     0
  9
$DIMEXE
 40
2.54
  9
$DIMEXO
 40
2.54
  9
$DIMTVP
 40
1.0
  9
$DIMSAH
 70
     1
  9
$DIMDLE
 40
0.0
  9
$DIMTXT
 40
3.2
  9
$DIMGAP
 40
1.6
  0
ENDSEC
  0
SECTION
  2
TABLES
  0
TABLE
  2
LTYPE
 70
     39
  0
LTYPE
  2
CONTINUOUS
 70
    64
  3
Solid line
 72
    65
 73
     0
 40
0.0
  0
LTYPE
  2
ACAD_ISO02W100
 70
     0
  3
ISO dash __ __ __ __ __ __ __ __ __ __ __ __ __
 72
    65
 73
     2
 40
15.0
 49
12.0
 49
-3.0
  0
LTYPE
  2
ACAD_ISO03W100
 70
     0
  3
ISO dash space __    __    __    __    __    __
 72
    65
 73
     2
 40
30.0
 49
12.0
 49
-18.0
  0
LTYPE
  2
ACAD_ISO04W100
 70
     0
  3
ISO long-dash dot ____ . ____ . ____ . ____ . _
 72
    65
 73
     4
 40
30.0
 49
24.0
 49
-3.0
 49
0.0
 49
-3.0
  0
LTYPE
  2
ACAD_ISO05W100
 70
     0
  3
ISO long-dash double-dot ____ .. ____ .. ____ .
 72
    65
 73
     6
 40
33.0
 49
24.0
 49
-3.0
 49
0.0
 49
-3.0
 49
0.0
 49
-3.0
  0
LTYPE
  2
ACAD_ISO06W100
 70
     0
  3
ISO long-dash triple-dot ____ ... ____ ... ____
 72
    65
 73
     8
 40
36.0
 49
24.0
 49
-3.0
 49
0.0
 49
-3.0
 49
0.0
 49
-3.0
 49
0.0
 49
-3.0
  0
LTYPE
  2
ACAD_ISO07W100
 70
     0
  3
ISO dot . . . . . . . . . . . . . . . . . . . .
 72
    65
 73
     2
 40
3.0
 49
0.0
 49
-3.0
  0
LTYPE
  2
ACAD_ISO08W100
 70
     0
  3
ISO long-dash short-dash ____ __ ____ __ ____ _
 72
    65
 73
     4
 40
36.0
 49
24.0
 49
-3.0
 49
6.0
 49
-3.0
  0
LTYPE
  2
ACAD_ISO09W100
 70
     0
  3
ISO long-dash double-short-dash ____ __ __ ____
 72
    65
 73
     6
 40
45.0
 49
24.0
 49
-3.0
 49
6.0
 49
-3.0
 49
6.0
 49
-3.0
  0
LTYPE
  2
ACAD_ISO10W100
 70
     0
  3
ISO dash dot __ . __ . __ . __ . __ . __ . __ .
 72
    65
 73
     4
 40
18.0
 49
12.0
 49
-3.0
 49
0.0
 49
-3.0
  0
LTYPE
  2
ACAD_ISO11W100
 70
     0
  3
ISO double-dash dot __ __ . __ __ . __ __ . __ 
 72
    65
 73
     6
 40
33.0
 49
12.0
 49
-3.0
 49
12.0
 49
-3.0
 49
0.0
 49
-3.0
  0
LTYPE
  2
ACAD_ISO12W100
 70
     0
  3
ISO dash double-dot __ . . __ . . __ . . __ . .
 72
    65
 73
     6
 40
21.0
 49
12.0
 49
-3.0
 49
0.0
 49
-3.0
 49
0.0
 49
-3.0
  0
LTYPE
  2
ACAD_ISO13W100
 70
     0
  3
ISO double-dash double-dot __ __ . . __ __ . . 
 72
    65
 73
     8
 40
36.0
 49
12.0
 49
-3.0
 49
12.0
 49
-3.0
 49
0.0
 49
-3.0
 49
0.0
 49
-3.0
  0
LTYPE
  2
ACAD_ISO14W100
 70
     0
  3
ISO dash triple-dot __ . . . __ . . . __ . . . 
 72
    65
 73
     8
 40
24.0
 49
12.0
 49
-3.0
 49
0.0
 49
-3.0
 49
0.0
 49
-3.0
 49
0.0
 49
-3.0
  0
LTYPE
  2
ACAD_ISO15W100
 70
     0
  3
ISO double-dash triple-dot __ __ . . . __ __ . 
 72
    65
 73
    10
 40
39.0
 49
12.0
 49
-3.0
 49
12.0
 49
-3.0
 49
0.0
 49
-3.0
 49
0.0
 49
-3.0
 49
0.0
 49
-3.0
  0
LTYPE
  2
BORDER
 70
    64
  3
Border __ __ . __ __ . __ __ . __ __ . __ __ .
 72
    65
 73
     6
 40
3.5
 49
1.0
 49
-0.5
 49
1.0
 49
-0.5
 49
0.0
 49
-0.5
  0
LTYPE
  2
BORDER2
 70
    64
  3
Border (.5x) __.__.__.__.__.__.__.__.__.__.__.
 72
    65
 73
     6
 40
1.75
 49
0.5
 49
-0.25
 49
0.5
 49
-0.25
 49
0.0
 49
-0.25
  0
LTYPE
  2
BORDERX2
 70
    64
  3
Border (2x) ____  ____  .  ____  ____  .  ___
 72
    65
 73
     6
 40
7.0
 49
2.0
 49
-1.0
 49
2.0
 49
-1.0
 49
0.0
 49
-1.0
  0
LTYPE
  2
CENTER
 70
    64
  3
Center ____ _ ____ _ ____ _ ____ _ ____ _ ____
 72
    65
 73
     4
 40
12.0
 49
7.5
 49
-1.5
 49
1.5
 49
-1.5
  0
LTYPE
  2
CENTER2
 70
    64
  3
Center (.5x) ___ _ ___ _ ___ _ ___ _ ___ _ ___
 72
    65
 73
     4
 40
6.0
 49
3.75
 49
-0.75
 49
0.75
 49
-0.75
  0
LTYPE
  2
CENTERX2
 70
    64
  3
Center (2x) ________  __  ________  __  _____
 72
    65
 73
     4
 40
24.0
 49
15.0
 49
-3.0
 49
3.0
 49
-3.0
  0
LTYPE
  2
DASHDOT
 70
    64
  3
Dash dot __ . __ . __ . __ . __ . __ . __ . __
 72
    65
 73
     4
 40
6.0
 49
3.0
 49
-1.5
 49
0.0
 49
-1.5
  0
LTYPE
  2
DASHDOT2
 70
    64
  3
Dash dot (.5x) _._._._._._._._._._._._._._._.
 72
    65
 73
     4
 40
3.0
 49
1.5
 49
-0.75
 49
0.0
 49
-0.75
  0
LTYPE
  2
DASHDOTX2
 70
    64
  3
Dash dot (2x) ____  .  ____  .  ____  .  ___
 72
    65
 73
     4
 40
12.0
 49
6.0
 49
-3.0
 49
0.0
 49
-3.0
  0
LTYPE
  2
DASHED
 70
    64
  3
Dashed __ __ __ __ __ __ __ __ __ __ __ __ __ _
 72
    65
 73
     2
 40
4.5
 49
3.0
 49
-1.5
  0
LTYPE
  2
DASHED2
 70
    64
  3
Dashed (.5x) _ _ _ _ _ _ _ _ _ _ _ _ _ _ _ _ _
 72
    65
 73
     2
 40
2.25
 49
1.5
 49
-0.75
  0
LTYPE
  2
DASHEDX2
 70
    64
  3
Dashed (2x) ____  ____  ____  ____  ____  ___
 72
    65
 73
     2
 40
9.0
 49
6.0
 49
-3.0
  0
LTYPE
  2
DIVIDE
 70
    64
  3
Divide ____ . . ____ . . ____ . . ____ . . ____
 72
    65
 73
     6
 40
7.5
 49
3.0
 49
-1.5
 49
0.0
 49
-1.5
 49
0.0
 49
-1.5
  0
LTYPE
  2
DIVIDE2
 70
    64
  3
Divide (.5x) __..__..__..__..__..__..__..__.._
 72
    65
 73
     6
 40
3.75
 49
1.5
 49
-0.75
 49
0.0
 49
-0.75
 49
0.0
 49
-0.75
  0
LTYPE
  2
DIVIDEX2
 70
    64
  3
Divide (2x) ________  .  .  ________  .  .  _
 72
    65
 73
     6
 40
15.0
 49
6.0
 49
-3.0
 49
0.0
 49
-3.0
 49
0.0
 49
-3.0
  0
LTYPE
  2
DOT
 70
    64
  3
Dot . . . . . . . . . . . . . . . . . . . . . .
 72
    65
 73
     2
 40
1.5
 49
0.0
 49
-1.5
  0
LTYPE
  2
DOT2
 70
    64
  3
Dot (.5x) .....................................
 72
    65
 73
     2
 40
0.75
 49
0.0
 49
-0.75
  0
LTYPE
  2
DOTX2
 70
    64
  3
Dot (2x) .  .  .  .  .  .  .  .  .  .  .  .  . 
 72
    65
 73
     2
 40
3.0
 49
0.0
 49
-3.0
  0
LTYPE
  2
HIDDEN
 70
    64
  3
Hidden __ __ __ __ __ __ __ __ __ __ __ __ __ _
 72
    65
 73
     2
 40
4.5
 49
3.0
 49
-1.5
  0
LTYPE
  2
HIDDEN2
 70
    64
  3
Hidden (.5x) _ _ _ _ _ _ _ _ _ _ _ _ _ _ _ _ _
 72
    65
 73
     2
 40
2.25
 49
1.5
 49
-0.75
  0
LTYPE
  2
HIDDENX2
 70
    64
  3
Hidden (2x) ____ ____ ____ ____ ____ ____ ____
 72
    65
 73
     2
 40
9.0
 49
6.0
 49
-3.0
  0
LTYPE
  2
PHANTOM
 70
    64
  3
Phantom ______  __  __  ______  __  __  ______
 72
    65
 73
     6
 40
15.0
 49
7.5
 49
-1.5
 49
1.5
 49
-1.5
 49
1.5
 49
-1.5
  0
LTYPE
  2
PHANTOM2
 70
    64
  3
Phantom (.5x) ___ _ _ ___ _ _ ___ _ _ ___ _ _
 72
    65
 73
     6
 40
7.5
 49
3.75
 49
-0.75
 49
0.75
 49
-0.75
 49
0.75
 49
-0.75
  0
LTYPE
  2
PHANTOMX2
 70
    64
  3
Phantom (2x) ____________    ____    ____   _
 72
    65
 73
     6
 40
30.0
 49
15.0
 49
-3.0
 49
3.0
 49
-3.0
 49
3.0
 49
-3.0
  0
ENDTAB
  0
TABLE
  2
LAYER
 70
     1
  0
LAYER
  2
0
 70
     0
 62
     7
  6
CONTINUOUS
  0
ENDTAB
  0
TABLE
  2
STYLE
 70
     1
  0
STYLE
  2
STANDARD
 70
     0
 40
0.0
 41
1.0
 50
0.0
 71
     0
 42
0.2
  3
txt
  4
BIGFONT
  0
ENDTAB
  0
TABLE
  2
DIMSTYLE
 70
     0
  0
ENDTAB
  0
ENDSEC
  0
SECTION
  2
BLOCKS
  0
ENDSEC
  0
SECTION
  2
ENTITIES
  0
LINE
  8
0
  6
CONTINUOUS
 62
     7
 10
-177
 20
-0.19999981
 11
0
 21
-0.19999981
  0
LINE
  8
0
  6
CONTINUOUS
 62
     7
 10
-177
 20
274.29999
 11
-177
 21
-0.19999981
  0
LINE
  8
0
  6
CONTINUOUS
 62
     7
 10
-177
 20
-0.39999962
 11
-1.6000032
 21
-0.39999962
  0
LINE
  8
0
  6
CONTINUOUS
 62
     7
 10
-177.2
 20
274.29999
 11
-177.2
 21
-0.19999981
  0
LINE
  8
0
  6
CONTINUOUS
 62
     7
 10
0
 20
274.29999
 11
0
 21
0
  0
LINE
  8
0
  6
CONTINUOUS
 62
     7
 10
-0.20000005
 20
274.29999
 11
-0.20000005
 21
0
  0
LINE
  8
0
  6
CONTINUOUS
 62
     7
 10
-177
 20
274.29999
 11
0
 21
274.29999
  0
LINE
  8
0
  6
CONTINUOUS
 62
     7
 10
-177
 20
274.5
 11
0
 21
274.5
  0
LINE
  8
0
  6
CONTINUOUS
 62
     7
 10
-61.799999
 20
12.3
 11
0
 21
12.3
  0
LINE
  8
0
  6
CONTINUOUS
 62
     7
 10
-61.799999
 20
24.799999
 11
0
 21
24.799999
  0
LINE
  8
0
  6
CONTINUOUS
 62
     7
 10
-61.799999
 20
38.299999
 11
0
 21
38.299999
  0
LINE
  8
0
  6
CONTINUOUS
 62
     7
 10
-61.799999
 20
38.299999
 11
-61.799999
 21
0
  0
LINE
  8
0
  6
CONTINUOUS
 62
     7
 10
-65.166245
 20
232.15894
 11
-111.16624
 21
232.15894
  0
LINE
  8
0
  6
CONTINUOUS
 62
     7
 10
-111.16624
 20
214.15894
 11
-111.16624
 21
232.15894
  0
LINE
  8
0
  6
DASHED
 62
     7
 10
-104.16624
 20
222.15894
 11
-104.16624
 21
226.15894
  0
LINE
  8
0
  6
DASHED
 62
     7
 10
-102.16624
 20
216.29491
 11
-102.16624
 21
222.15894
  0
LINE
  8
0
  6
DASHED
 62
     7
 10
-72.166245
 20
222.15894
 11
-104.16624
 21
222.15894
  0
LINE
  8
0
  6
DASHED
 62
     7
 10
-105.04188
 20
185.15894
 11
-117.16624
 21
178.15894
  0
LINE
  8
0
  6
DASHED
 62
     7
 10
-104.66624
 20
183.15894
 11
-104.66624
 21
185.15894
  0
LINE
  8
0
  6
DASHED
 62
     7
 10
-89.166245
 20
183.15894
 11
-89.166245
 21
185.15894
  0
LINE
  8
0
  6
DASHED
 62
     7
 10
-89.166245
 20
183.15894
 11
-104.66624
 21
183.15894
  0
LINE
  8
0
  6
DASHED
 62
     7
 10
-102.16624
 20
185.15894
 11
-102.16624
 21
185.94206
  0
LINE
  8
0
  6
DASHED
 62
     7
 10
-93.166245
 20
226.15894
 11
-93.166245
 21
232.15894
  0
LINE
  8
0
  6
CONTINUOUS
 62
     7
 10
-110.67587
 20
198.92689
 11
-120.66625
 21
193.15895
  0
LINE
  8
0
  6
CONTINUOUS
 62
     7
 10
-110.67587
 20
202.39099
 11
-120.66624
 21
208.15894
  0
LINE
  8
0
  6
CONTINUOUS
 62
     7
 10
-111.16624
 20
214.15894
 11
-120.66624
 21
208.15894
  0
LINE
  8
0
  6
DASHED
 62
     7
 10
-106.17587
 20
198.06087
 11
-110.16625
 21
195.75702
  0
LINE
  8
0
  6
DASHED
 62
     7
 10
-102.16625
 20
185.94206
 11
-110.16624
 21
190.56086
  0
LINE
  8
0
  6
DASHED
 62
     7
 10
-106.17586
 20
203.25701
 11
-110.56532
 21
205.79127
  0
LINE
  8
0
  6
DASHED
 62
     7
 10
-102.16624
 20
216.29491
 11
-110.6673
 21
210.92581
  0
LINE
  8
0
  6
CONTINUOUS
 62
     7
 10
-118.16624
 20
178.15894
 11
-58.166252
 21
178.15894
  0
LINE
  8
0
  6
CONTINUOUS
 62
     7
 10
-65.166245
 20
214.15894
 11
-65.166245
 21
232.15894
  0
LINE
  8
0
  6
DASHED
 62
     7
 10
-72.166245
 20
222.15894
 11
-72.166245
 21
226.15894
  0
LINE
  8
0
  6
DASHED
 62
     7
 10
-104.16624
 20
226.15894
 11
-72.166245
 21
226.15894
  0
LINE
  8
0
  6
DASHED
 62
     7
 10
-74.166245
 20
216.29491
 11
-74.166245
 21
222.15894
  0
LINE
  8
0
  6
DASHED
 62
     7
 10
-71.290614
 20
185.15894
 11
-59.166245
 21
178.15893
  0
LINE
  8
0
  6
DASHED
 62
     7
 10
-71.666245
 20
183.15894
 11
-71.666245
 21
185.15894
  0
LINE
  8
0
  6
DASHED
 62
     7
 10
-87.166245
 20
183.15894
 11
-87.166245
 21
185.15894
  0
LINE
  8
0
  6
DASHED
 62
     7
 10
-89.166245
 20
185.15894
 11
-87.166245
 21
185.15894
  0
LINE
  8
0
  6
DASHED
 62
     7
 10
-87.166245
 20
183.15894
 11
-71.666245
 21
183.15894
  0
LINE
  8
0
  6
DASHED
 62
     7
 10
-74.166245
 20
185.15894
 11
-74.166245
 21
185.94206
  0
LINE
  8
0
  6
DASHED
 62
     7
 10
-83.166245
 20
226.15894
 11
-83.166245
 21
232.15894
  0
LINE
  8
0
  6
CONTINUOUS
 62
     7
 10
-65.656624
 20
198.92688
 11
-55.666252
 21
193.15894
  0
LINE
  8
0
  6
CONTINUOUS
 62
     7
 10
-65.656626
 20
202.39099
 11
-55.666243
 21
208.15894
  0
LINE
  8
0
  6
CONTINUOUS
 62
     7
 10
-65.166255
 20
214.15895
 11
-55.666245
 21
208.15894
  0
LINE
  8
0
  6
DASHED
 62
     7
 10
-70.156633
 20
198.06086
 11
-66.166251
 21
195.75701
  0
LINE
  8
0
  6
DASHED
 62
     7
 10
-74.16625
 20
185.94207
 11
-66.16625
 21
190.56087
  0
LINE
  8
0
  6
DASHED
 62
     7
 10
-70.156624
 20
203.25701
 11
-65.767164
 21
205.79127
  0
LINE
  8
0
  6
DASHED
 62
     7
 10
-74.166249
 20
216.29491
 11
-65.665187
 21
210.92582
  0
LINE
  8
0
  6
DASHED
 62
     7
 10
-74.166245
 20
185.15894
 11
-71.290611
 21
185.15894
  0
LINE
  8
0
  6
DASHED
 62
     7
 10
-102.16624
 20
185.15894
 11
-105.04188
 21
185.15894
  0
LINE
  8
0
  6
CONTINUOUS
 62
     7
 10
-112.97009
 20
187.15894
 11
-63.362408
 21
187.15894
  0
LINE
  8
0
  6
CONTINUOUS
 62
     7
 10
-120.66624
 20
193.15894
 11
-55.666248
 21
193.15894
  0
LINE
  8
0
  6
CONTINUOUS
 62
     7
 10
-109.17587
 20
200.65894
 11
-67.156624
 21
200.65894
  0
LINE
  8
0
  6
CONTINUOUS
 62
     7
 10
-120.66624
 20
208.15894
 11
-55.666245
 21
208.15894
  0
LINE
  8
0
  6
CONTINUOUS
 62
     7
 10
-111.16624
 20
214.15894
 11
-65.166245
 21
214.15894
  0
LINE
  8
0
  6
CENTER
 62
     7
 10
-88.166245
 20
172.28494
 11
-88.166245
 21
240.16441
  0
LINE
  8
0
  6
CENTER
 62
     7
 10
-53.126247
 20
105.25951
 11
-123.20625
 21
105.25951
  0
LINE
  8
0
  6
CENTER
 62
     7
 10
-88.166245
 20
140.2995
 11
-88.166245
 21
70.219505
  0
LINE
  8
0
  6
CONTINUOUS
 62
     7
 10
-89.166245
 20
121.72917
 11
-89.166245
 21
119.22375
  0
LINE
  8
0
  6
CONTINUOUS
 62
     7
 10
-87.166245
 20
121.72917
 11
-87.166245
 21
119.22375
  0
LINE
  8
0
  6
CONTINUOUS
 62
     7
 10
-71.696579
 20
104.25951
 11
-74.202003
 21
104.25951
  0
LINE
  8
0
  6
CONTINUOUS
 62
     7
 10
-71.696579
 20
106.25951
 11
-74.202003
 21
106.25951
  0
LINE
  8
0
  6
CONTINUOUS
 62
     7
 10
-89.166245
 20
91.295265
 11
-89.166245
 21
88.789833
  0
LINE
  8
0
  6
CONTINUOUS
 62
     7
 10
-87.166245
 20
91.295265
 11
-87.166245
 21
88.789833
  0
LINE
  8
0
  6
CONTINUOUS
 62
     7
 10
-102.13049
 20
106.25951
 11
-104.63591
 21
106.25951
  0
LINE
  8
0
  6
CONTINUOUS
 62
     7
 10
-102.13049
 20
104.25951
 11
-104.63591
 21
104.25951
  0
LINE
  8
0
  6
CONTINUOUS
 62
     7
 10
-63.362409
 20
187.15895
 11
-58.16625
 21
178.15894
  0
LINE
  8
0
  6
CONTINUOUS
 62
     7
 10
-55.666241
 20
193.15894
 11
-63.362398
 21
187.15894
  0
LINE
  8
0
  6
CONTINUOUS
 62
     7
 10
-112.97008
 20
187.15893
 11
-118.16623
 21
178.15894
  0
LINE
  8
0
  6
CONTINUOUS
 62
     7
 10
-120.66626
 20
193.15895
 11
-112.97009
 21
187.15894
  0
LINE
  8
0
  6
CONTINUOUS
 62
     7
 10
-88.256248
 20
105.2595
 11
-88.076248
 21
105.2595
  0
LINE
  8
0
  6
CONTINUOUS
 62
     7
 10
-88.166245
 20
105.1695
 11
-88.166245
 21
105.3495
  0
LINE
  8
0
  6
CONTINUOUS
 62
     7
 10
-88.166245
 20
105.1695
 11
-88.166245
 21
105.3495
  0
LINE
  8
0
  6
CONTINUOUS
 62
     7
 10
-88.256248
 20
105.2595
 11
-88.076248
 21
105.2595
  0
LINE
  8
0
  6
CONTINUOUS
 62
     7
 10
-107.67587
 20
200.56894
 11
-107.67587
 21
200.74895
  0
LINE
  8
0
  6
CONTINUOUS
 62
     7
 10
-107.76586
 20
200.65894
 11
-107.58586
 21
200.65894
  0
LINE
  8
0
  6
CONTINUOUS
 62
     7
 10
-108.66624
 20
193.06894
 11
-108.66624
 21
193.24893
  0
LINE
  8
0
  6
CONTINUOUS
 62
     7
 10
-108.75624
 20
193.15894
 11
-108.57625
 21
193.15894
  0
LINE
  8
0
  6
CONTINUOUS
 62
     7
 10
-109.06533
 20
208.29935
 11
-109.06533
 21
208.47934
  0
LINE
  8
0
  6
CONTINUOUS
 62
     7
 10
-109.15533
 20
208.38934
 11
-108.97533
 21
208.38934
  0
ARC
  8
0
  6
CONTINUOUS
 62
     7
 10
-64.656624
 20
200.65894
 40
2
 50
120
 51
240.00001
  0
ARC
  8
0
  6
DASHED
 62
     7
 10
-108.66624
 20
193.15894
 40
3
 50
120
 51
240.00001
  0
ARC
  8
0
  6
DASHED
 62
     7
 10
-109.06533
 20
208.38934
 40
3
 50
122.27564
 51
240.00001
  0
ARC
  8
0
  6
DASHED
 62
     7
 10
-107.67587
 20
200.65894
 40
3
 50
300.00001
 51
60.000008
  0
ARC
  8
0
  6
CONTINUOUS
 62
     7
 10
-111.67587
 20
200.65894
 40
2
 50
300.00001
 51
60.000008
  0
ARC
  8
0
  6
DASHED
 62
     7
 10
-67.666245
 20
193.15894
 40
3
 50
300.00001
 51
60.000008
  0
ARC
  8
0
  6
DASHED
 62
     7
 10
-67.267166
 20
208.38934
 40
3
 50
300.00001
 51
57.724353
  0
ARC
  8
0
  6
DASHED
 62
     7
 10
-68.656624
 20
200.65894
 40
3
 50
120
 51
240.00001
  0
ARC
  8
0
  6
CONTINUOUS
 62
     7
 10
-88.166245
 20
105.25951
 40
16.5
 50
3.4746007
 51
86.525396
  0
CIRCLE
  8
0
  6
CONTINUOUS
 62
     7
 10
-88.166245
 20
105.25951
 40
28.999989
  0
CIRCLE
  8
0
  6
CONTINUOUS
 62
     7
 10
-88.166245
 20
105.25951
 40
29.999996
  0
CIRCLE
  8
0
  6
CONTINUOUS
 62
     7
 10
-88.166245
 20
105.25951
 40
32.5
  0
CIRCLE
  8
0
  6
CONTINUOUS
 62
     7
 10
-88.166245
 20
105.25951
 40
14
  0
ARC
  8
0
  6
CONTINUOUS
 62
     7
 10
-88.166245
 20
105.25951
 40
16.5
 50
183.47459
 51
266.5254
  0
ARC
  8
0
  6
CONTINUOUS
 62
     7
 10
-88.166245
 20
105.25951
 40
16.5
 50
93.474602
 51
176.52541
  0
ARC
  8
0
  6
CONTINUOUS
 62
     7
 10
-88.166245
 20
105.25951
 40
16.5
 50
273.4746
 51
356.5254
  0
TEXT
  8
0
  6
CONTINUOUS
 62
     7
 10
-58.55271
 20
27.897535
 40
4.8000002
 41
0.84377249
  1
吸着パット（ビス止め式）
  0
TEXT
  8
0
  6
CONTINUOUS
 62
     7
 10
-54.408527
 20
15.811754
 40
4.8000002
 41
0.84448346
  1
ＶＡＰＨ－６０Ｆ－２
  0
TEXT
  8
0
  6
CONTINUOUS
 62
     7
 10
-45.089592
 20
3.2575321
 40
4.8000002
 41
0.847411
  1
２１００４４
  0
ENDSEC
  0
EOF
