  0
SECTION
  2
HEADER
  9
$EXTMAX
 10
1.2182922
 20
274.528
 30
0
  9
$EXTMIN
 10
-177.2301
 20
-1.0560455
 30
0
  9
$LIMMAX
 10
1.2182922
 20
274.528
  9
$LIMMIN
 10
-177.2301
 20
-1.0560455
  9
$PLIMMAX
 10
1.2182922
 20
274.528
  9
$PLIMMIN
 10
-177.2301
 20
-1.0560455
  9
$PEXTMAX
 10
1.2182922
 20
274.528
 30
0
  9
$PEXTMIN
 10
-177.2301
 20
-1.0560455
 30
0
  9
$TEXTSIZE
 40
3.2
  9
$DIMSHO
 70
     0
  9
$DIMASZ
 40
1.0
  9
$DIMTAD
 70
     1
  9
$DIMTIH
 70
     0
  9
$DIMTOH
 70
     0
  9
$DIMEXE
 40
2.54
  9
$DIMEXO
 40
2.54
  9
$DIMTVP
 40
1.0
  9
$DIMSAH
 70
     1
  9
$DIMDLE
 40
0.0
  9
$DIMTXT
 40
3.2
  9
$DIMGAP
 40
1.6
  0
ENDSEC
  0
SECTION
  2
TABLES
  0
TABLE
  2
LTYPE
 70
     39
  0
LTYPE
  2
CONTINUOUS
 70
    64
  3
Solid line
 72
    65
 73
     0
 40
0.0
  0
LTYPE
  2
ACAD_ISO02W100
 70
     0
  3
ISO dash __ __ __ __ __ __ __ __ __ __ __ __ __
 72
    65
 73
     2
 40
15.0
 49
12.0
 49
-3.0
  0
LTYPE
  2
ACAD_ISO03W100
 70
     0
  3
ISO dash space __    __    __    __    __    __
 72
    65
 73
     2
 40
30.0
 49
12.0
 49
-18.0
  0
LTYPE
  2
ACAD_ISO04W100
 70
     0
  3
ISO long-dash dot ____ . ____ . ____ . ____ . _
 72
    65
 73
     4
 40
30.0
 49
24.0
 49
-3.0
 49
0.0
 49
-3.0
  0
LTYPE
  2
ACAD_ISO05W100
 70
     0
  3
ISO long-dash double-dot ____ .. ____ .. ____ .
 72
    65
 73
     6
 40
33.0
 49
24.0
 49
-3.0
 49
0.0
 49
-3.0
 49
0.0
 49
-3.0
  0
LTYPE
  2
ACAD_ISO06W100
 70
     0
  3
ISO long-dash triple-dot ____ ... ____ ... ____
 72
    65
 73
     8
 40
36.0
 49
24.0
 49
-3.0
 49
0.0
 49
-3.0
 49
0.0
 49
-3.0
 49
0.0
 49
-3.0
  0
LTYPE
  2
ACAD_ISO07W100
 70
     0
  3
ISO dot . . . . . . . . . . . . . . . . . . . .
 72
    65
 73
     2
 40
3.0
 49
0.0
 49
-3.0
  0
LTYPE
  2
ACAD_ISO08W100
 70
     0
  3
ISO long-dash short-dash ____ __ ____ __ ____ _
 72
    65
 73
     4
 40
36.0
 49
24.0
 49
-3.0
 49
6.0
 49
-3.0
  0
LTYPE
  2
ACAD_ISO09W100
 70
     0
  3
ISO long-dash double-short-dash ____ __ __ ____
 72
    65
 73
     6
 40
45.0
 49
24.0
 49
-3.0
 49
6.0
 49
-3.0
 49
6.0
 49
-3.0
  0
LTYPE
  2
ACAD_ISO10W100
 70
     0
  3
ISO dash dot __ . __ . __ . __ . __ . __ . __ .
 72
    65
 73
     4
 40
18.0
 49
12.0
 49
-3.0
 49
0.0
 49
-3.0
  0
LTYPE
  2
ACAD_ISO11W100
 70
     0
  3
ISO double-dash dot __ __ . __ __ . __ __ . __ 
 72
    65
 73
     6
 40
33.0
 49
12.0
 49
-3.0
 49
12.0
 49
-3.0
 49
0.0
 49
-3.0
  0
LTYPE
  2
ACAD_ISO12W100
 70
     0
  3
ISO dash double-dot __ . . __ . . __ . . __ . .
 72
    65
 73
     6
 40
21.0
 49
12.0
 49
-3.0
 49
0.0
 49
-3.0
 49
0.0
 49
-3.0
  0
LTYPE
  2
ACAD_ISO13W100
 70
     0
  3
ISO double-dash double-dot __ __ . . __ __ . . 
 72
    65
 73
     8
 40
36.0
 49
12.0
 49
-3.0
 49
12.0
 49
-3.0
 49
0.0
 49
-3.0
 49
0.0
 49
-3.0
  0
LTYPE
  2
ACAD_ISO14W100
 70
     0
  3
ISO dash triple-dot __ . . . __ . . . __ . . . 
 72
    65
 73
     8
 40
24.0
 49
12.0
 49
-3.0
 49
0.0
 49
-3.0
 49
0.0
 49
-3.0
 49
0.0
 49
-3.0
  0
LTYPE
  2
ACAD_ISO15W100
 70
     0
  3
ISO double-dash triple-dot __ __ . . . __ __ . 
 72
    65
 73
    10
 40
39.0
 49
12.0
 49
-3.0
 49
12.0
 49
-3.0
 49
0.0
 49
-3.0
 49
0.0
 49
-3.0
 49
0.0
 49
-3.0
  0
LTYPE
  2
BORDER
 70
    64
  3
Border __ __ . __ __ . __ __ . __ __ . __ __ .
 72
    65
 73
     6
 40
3.5
 49
1.0
 49
-0.5
 49
1.0
 49
-0.5
 49
0.0
 49
-0.5
  0
LTYPE
  2
BORDER2
 70
    64
  3
Border (.5x) __.__.__.__.__.__.__.__.__.__.__.
 72
    65
 73
     6
 40
1.75
 49
0.5
 49
-0.25
 49
0.5
 49
-0.25
 49
0.0
 49
-0.25
  0
LTYPE
  2
BORDERX2
 70
    64
  3
Border (2x) ____  ____  .  ____  ____  .  ___
 72
    65
 73
     6
 40
7.0
 49
2.0
 49
-1.0
 49
2.0
 49
-1.0
 49
0.0
 49
-1.0
  0
LTYPE
  2
CENTER
 70
    64
  3
Center ____ _ ____ _ ____ _ ____ _ ____ _ ____
 72
    65
 73
     4
 40
12.0
 49
7.5
 49
-1.5
 49
1.5
 49
-1.5
  0
LTYPE
  2
CENTER2
 70
    64
  3
Center (.5x) ___ _ ___ _ ___ _ ___ _ ___ _ ___
 72
    65
 73
     4
 40
6.0
 49
3.75
 49
-0.75
 49
0.75
 49
-0.75
  0
LTYPE
  2
CENTERX2
 70
    64
  3
Center (2x) ________  __  ________  __  _____
 72
    65
 73
     4
 40
24.0
 49
15.0
 49
-3.0
 49
3.0
 49
-3.0
  0
LTYPE
  2
DASHDOT
 70
    64
  3
Dash dot __ . __ . __ . __ . __ . __ . __ . __
 72
    65
 73
     4
 40
6.0
 49
3.0
 49
-1.5
 49
0.0
 49
-1.5
  0
LTYPE
  2
DASHDOT2
 70
    64
  3
Dash dot (.5x) _._._._._._._._._._._._._._._.
 72
    65
 73
     4
 40
3.0
 49
1.5
 49
-0.75
 49
0.0
 49
-0.75
  0
LTYPE
  2
DASHDOTX2
 70
    64
  3
Dash dot (2x) ____  .  ____  .  ____  .  ___
 72
    65
 73
     4
 40
12.0
 49
6.0
 49
-3.0
 49
0.0
 49
-3.0
  0
LTYPE
  2
DASHED
 70
    64
  3
Dashed __ __ __ __ __ __ __ __ __ __ __ __ __ _
 72
    65
 73
     2
 40
4.5
 49
3.0
 49
-1.5
  0
LTYPE
  2
DASHED2
 70
    64
  3
Dashed (.5x) _ _ _ _ _ _ _ _ _ _ _ _ _ _ _ _ _
 72
    65
 73
     2
 40
2.25
 49
1.5
 49
-0.75
  0
LTYPE
  2
DASHEDX2
 70
    64
  3
Dashed (2x) ____  ____  ____  ____  ____  ___
 72
    65
 73
     2
 40
9.0
 49
6.0
 49
-3.0
  0
LTYPE
  2
DIVIDE
 70
    64
  3
Divide ____ . . ____ . . ____ . . ____ . . ____
 72
    65
 73
     6
 40
7.5
 49
3.0
 49
-1.5
 49
0.0
 49
-1.5
 49
0.0
 49
-1.5
  0
LTYPE
  2
DIVIDE2
 70
    64
  3
Divide (.5x) __..__..__..__..__..__..__..__.._
 72
    65
 73
     6
 40
3.75
 49
1.5
 49
-0.75
 49
0.0
 49
-0.75
 49
0.0
 49
-0.75
  0
LTYPE
  2
DIVIDEX2
 70
    64
  3
Divide (2x) ________  .  .  ________  .  .  _
 72
    65
 73
     6
 40
15.0
 49
6.0
 49
-3.0
 49
0.0
 49
-3.0
 49
0.0
 49
-3.0
  0
LTYPE
  2
DOT
 70
    64
  3
Dot . . . . . . . . . . . . . . . . . . . . . .
 72
    65
 73
     2
 40
1.5
 49
0.0
 49
-1.5
  0
LTYPE
  2
DOT2
 70
    64
  3
Dot (.5x) .....................................
 72
    65
 73
     2
 40
0.75
 49
0.0
 49
-0.75
  0
LTYPE
  2
DOTX2
 70
    64
  3
Dot (2x) .  .  .  .  .  .  .  .  .  .  .  .  . 
 72
    65
 73
     2
 40
3.0
 49
0.0
 49
-3.0
  0
LTYPE
  2
HIDDEN
 70
    64
  3
Hidden __ __ __ __ __ __ __ __ __ __ __ __ __ _
 72
    65
 73
     2
 40
4.5
 49
3.0
 49
-1.5
  0
LTYPE
  2
HIDDEN2
 70
    64
  3
Hidden (.5x) _ _ _ _ _ _ _ _ _ _ _ _ _ _ _ _ _
 72
    65
 73
     2
 40
2.25
 49
1.5
 49
-0.75
  0
LTYPE
  2
HIDDENX2
 70
    64
  3
Hidden (2x) ____ ____ ____ ____ ____ ____ ____
 72
    65
 73
     2
 40
9.0
 49
6.0
 49
-3.0
  0
LTYPE
  2
PHANTOM
 70
    64
  3
Phantom ______  __  __  ______  __  __  ______
 72
    65
 73
     6
 40
15.0
 49
7.5
 49
-1.5
 49
1.5
 49
-1.5
 49
1.5
 49
-1.5
  0
LTYPE
  2
PHANTOM2
 70
    64
  3
Phantom (.5x) ___ _ _ ___ _ _ ___ _ _ ___ _ _
 72
    65
 73
     6
 40
7.5
 49
3.75
 49
-0.75
 49
0.75
 49
-0.75
 49
0.75
 49
-0.75
  0
LTYPE
  2
PHANTOMX2
 70
    64
  3
Phantom (2x) ____________    ____    ____   _
 72
    65
 73
     6
 40
30.0
 49
15.0
 49
-3.0
 49
3.0
 49
-3.0
 49
3.0
 49
-3.0
  0
ENDTAB
  0
TABLE
  2
LAYER
 70
     1
  0
LAYER
  2
0
 70
     0
 62
     7
  6
CONTINUOUS
  0
ENDTAB
  0
TABLE
  2
STYLE
 70
     1
  0
STYLE
  2
STANDARD
 70
     0
 40
0.0
 41
1.0
 50
0.0
 71
     0
 42
0.2
  3
txt
  4
BIGFONT
  0
ENDTAB
  0
TABLE
  2
DIMSTYLE
 70
     0
  0
ENDTAB
  0
ENDSEC
  0
SECTION
  2
BLOCKS
  0
BLOCK
  8
0
  2
KOZU0001
 70
    64
 10
0
 20
0
  0
LINE
  8
0
  6
CONTINUOUS
 62
     7
 10
0
 20
0
 11
10.153614
 21
24.764951
  0
LINE
  8
0
  6
CONTINUOUS
 62
     7
 10
0
 20
0
 11
0.21280626
 21
3.1551091
  0
LINE
  8
0
  6
CONTINUOUS
 62
     7
 10
0
 20
0
 11
2.0633104
 21
2.3964035
  0
TEXT
  8
0
  6
CONTINUOUS
 62
     7
 10
13.075776
 20
25.564959
 40
3.2
 41
0.86439074
  1
Ｍ５
  0
LINE
  8
0
  6
CONTINUOUS
 62
     7
 10
0
 20
0
 11
10.153614
 21
24.764951
  0
LINE
  8
0
  6
CONTINUOUS
 62
     7
 10
10.153612
 20
24.764959
 11
20.389776
 21
24.764959
  0
ENDBLK
  8
0
  0
BLOCK
  8
0
  2
KOZU0002
 70
    64
 10
0
 20
0
  0
LINE
  8
0
  6
CONTINUOUS
 62
     7
 10
0
 20
0
 11
7.2622437
 21
15.258291
  0
LINE
  8
0
  6
CONTINUOUS
 62
     7
 10
0
 20
0
 11
0.38633497
 21
3.1385896
  0
LINE
  8
0
  6
CONTINUOUS
 62
     7
 10
0
 20
0
 11
2.1922218
 21
2.2790707
  0
TEXT
  8
0
  6
CONTINUOUS
 62
     7
 10
10.709596
 20
16.058291
 40
3.2
 41
0.84741101
  1
Ｍ１２ｘＰ１
  0
LINE
  8
0
  6
CONTINUOUS
 62
     7
 10
0
 20
0
 11
7.2622437
 21
15.258291
  0
LINE
  8
0
  6
CONTINUOUS
 62
     7
 10
7.2622517
 20
15.258291
 11
30.823594
 21
15.258291
  0
ENDBLK
  8
0
  0
ENDSEC
  0
SECTION
  2
ENTITIES
  0
POINT
  8
0
  6
CONTINUOUS
 62
     7
 10
0
 20
274.5
  0
POINT
  8
0
  6
CONTINUOUS
 62
     7
 10
0
 20
0
  0
POINT
  8
0
  6
CONTINUOUS
 62
     7
 10
-176.8
 20
0
  0
POINT
  8
0
  6
CONTINUOUS
 62
     7
 10
-176.8
 20
274.5
  0
POINT
  8
0
  6
CONTINUOUS
 62
     7
 10
0
 20
0
  0
LINE
  8
0
  6
CONTINUOUS
 62
     7
 10
-176.8
 20
274.5
 11
-176.8
 21
0
  0
LINE
  8
0
  6
CONTINUOUS
 62
     7
 10
-176.8
 20
274.5
 11
0
 21
274.5
  0
LINE
  8
0
  6
CONTINUOUS
 62
     7
 10
-176.8
 20
0
 11
0
 21
0
  0
LINE
  8
0
  6
CONTINUOUS
 62
     7
 10
0
 20
274.5
 11
0
 21
0
  0
LINE
  8
0
  6
CONTINUOUS
 62
     7
 10
-61.599998
 20
38.5
 11
-61.599998
 21
0
  0
LINE
  8
0
  6
CONTINUOUS
 62
     7
 10
-61.599998
 20
12.5
 11
0
 21
12.5
  0
LINE
  8
0
  6
CONTINUOUS
 62
     7
 10
-61.599998
 20
25
 11
0
 21
25
  0
LINE
  8
0
  6
CONTINUOUS
 62
     7
 10
-61.599998
 20
38.5
 11
0
 21
38.5
  0
LINE
  8
0
  6
CONTINUOUS
 62
     7
 10
-176.60001
 20
0.2
 11
0
 21
0.2
  0
LINE
  8
0
  6
CONTINUOUS
 62
     7
 10
-176.60001
 20
274.5
 11
-176.60001
 21
0.2
  0
LINE
  8
0
  6
CONTINUOUS
 62
     7
 10
0.2
 20
274.70001
 11
0.2
 21
0
  0
LINE
  8
0
  6
CONTINUOUS
 62
     7
 10
-176.8
 20
274.70001
 11
0.2
 21
274.70001
  0
LINE
  8
0
  6
CONTINUOUS
 62
     7
 10
-101.64855
 20
188.8647
 11
-101.64855
 21
166.8647
  0
LINE
  8
0
  6
CONTINUOUS
 62
     7
 10
-97.648552
 20
188.8647
 11
-97.648552
 21
166.8647
  0
LINE
  8
0
  6
CENTER
 62
     7
 10
-109.83605
 20
177.8647
 11
-19.107759
 21
177.8647
  0
LINE
  8
0
  6
CONTINUOUS
 62
     7
 10
-101.64855
 20
188.8647
 11
-97.648552
 21
188.8647
  0
LINE
  8
0
  6
CONTINUOUS
 62
     7
 10
-101.64855
 20
166.8647
 11
-97.648552
 21
166.8647
  0
LINE
  8
0
  6
CONTINUOUS
 62
     7
 10
-97.648552
 20
170.06473
 11
-83.648552
 21
170.06473
  0
LINE
  8
0
  6
CONTINUOUS
 62
     7
 10
-97.648552
 20
185.66472
 11
-83.648552
 21
185.66472
  0
LINE
  8
0
  6
CONTINUOUS
 62
     7
 10
-83.648552
 20
193.8647
 11
-83.648552
 21
161.8647
  0
LINE
  8
0
  6
CONTINUOUS
 62
     7
 10
-63.648552
 20
193.8647
 11
-63.648552
 21
161.8647
  0
LINE
  8
0
  6
CONTINUOUS
 62
     7
 10
-82.648552
 20
194.8647
 11
-64.648552
 21
194.8647
  0
LINE
  8
0
  6
CONTINUOUS
 62
     7
 10
-82.648552
 20
160.8647
 11
-64.648552
 21
160.8647
  0
LINE
  8
0
  6
CONTINUOUS
 62
     7
 10
-23.64855
 20
188.8647
 11
-23.64855
 21
166.8647
  0
LINE
  8
0
  6
CONTINUOUS
 62
     7
 10
-61.648552
 20
189.8647
 11
-24.64855
 21
189.8647
  0
LINE
  8
0
  6
CONTINUOUS
 62
     7
 10
-61.648552
 20
165.8647
 11
-24.64855
 21
165.8647
  0
LINE
  8
0
  6
CONTINUOUS
 62
     7
 10
-63.648552
 20
188.8647
 11
-61.648552
 21
188.8647
  0
LINE
  8
0
  6
CONTINUOUS
 62
     7
 10
-63.648552
 20
166.8647
 11
-61.648552
 21
166.8647
  0
LINE
  8
0
  6
CONTINUOUS
 62
     7
 10
-61.648552
 20
189.8647
 11
-61.648552
 21
165.8647
  0
LINE
  8
0
  6
CONTINUOUS
 62
     7
 10
-61.648552
 20
166.8647
 11
-23.64855
 21
166.8647
  0
LINE
  8
0
  6
CONTINUOUS
 62
     7
 10
-61.648552
 20
188.8647
 11
-23.64855
 21
188.8647
  0
LINE
  8
0
  6
DASHED
 62
     7
 10
-101.04855
 20
181.8647
 11
-77.74855
 21
181.8647
  0
LINE
  8
0
  6
DASHED
 62
     7
 10
-101.04855
 20
173.86473
 11
-77.74855
 21
173.86473
  0
LINE
  8
0
  6
DASHED
 62
     7
 10
-68.648552
 20
194.8647
 11
-68.648552
 21
160.8647
  0
LINE
  8
0
  6
DASHED
 62
     7
 10
-78.648552
 20
194.8647
 11
-78.648552
 21
181.8647
  0
LINE
  8
0
  6
DASHED
 62
     7
 10
-69.548553
 20
194.8647
 11
-69.548553
 21
160.8647
  0
LINE
  8
0
  6
DASHED
 62
     7
 10
-77.74855
 20
194.8647
 11
-77.74855
 21
181.8647
  0
LINE
  8
0
  6
DASHED
 62
     7
 10
-78.648552
 20
173.86473
 11
-78.648552
 21
160.8647
  0
LINE
  8
0
  6
DASHED
 62
     7
 10
-77.74855
 20
173.86473
 11
-77.74855
 21
160.8647
  0
LINE
  8
0
  6
DASHED
 62
     7
 10
-101.04854
 20
173.86471
 11
-101.64855
 21
173.26471
  0
LINE
  8
0
  6
DASHED
 62
     7
 10
-101.64856
 20
182.46472
 11
-101.04856
 21
181.86472
  0
LINE
  8
0
  6
DASHED
 62
     7
 10
-101.04855
 20
181.8647
 11
-101.04855
 21
173.86473
  0
LINE
  8
0
  6
CONTINUOUS
 62
     7
 10
-23.648551
 20
166.86471
 11
-24.648553
 21
165.86471
  0
LINE
  8
0
  6
CONTINUOUS
 62
     7
 10
-24.648549
 20
189.86472
 11
-23.648548
 21
188.86472
  0
LINE
  8
0
  6
CONTINUOUS
 62
     7
 10
-24.64855
 20
189.8647
 11
-24.64855
 21
165.8647
  0
LINE
  8
0
  6
CONTINUOUS
 62
     7
 10
-124.06995
 20
177.86471
 11
-133.88492
 21
194.86472
  0
LINE
  8
0
  6
CONTINUOUS
 62
     7
 10
-133.88492
 20
194.8647
 11
-153.51482
 21
194.8647
  0
LINE
  8
0
  6
CONTINUOUS
 62
     7
 10
-163.32977
 20
177.86471
 11
-153.51482
 21
194.86471
  0
LINE
  8
0
  6
CONTINUOUS
 62
     7
 10
-153.51482
 20
160.86472
 11
-163.32978
 21
177.86472
  0
LINE
  8
0
  6
CONTINUOUS
 62
     7
 10
-133.88492
 20
160.8647
 11
-153.51482
 21
160.8647
  0
LINE
  8
0
  6
CONTINUOUS
 62
     7
 10
-124.06995
 20
177.86472
 11
-133.88491
 21
160.86472
  0
LINE
  8
0
  6
CENTER
 62
     7
 10
-143.69986
 20
199.94472
 11
-143.69986
 21
155.78473
  0
LINE
  8
0
  6
CENTER
 62
     7
 10
-165.77986
 20
177.8647
 11
-121.61987
 21
177.8647
  0
LINE
  8
0
  6
CENTER
 62
     7
 10
-106.3445
 20
100.60419
 11
-19.107759
 21
100.60419
  0
LINE
  8
0
  6
CONTINUOUS
 62
     7
 10
-82.648552
 20
120.23411
 11
-64.648552
 21
120.23411
  0
LINE
  8
0
  6
CONTINUOUS
 62
     7
 10
-82.648552
 20
80.974281
 11
-64.648552
 21
80.974281
  0
LINE
  8
0
  6
CONTINUOUS
 62
     7
 10
-83.648552
 20
90.78923
 11
-63.648552
 21
90.78923
  0
LINE
  8
0
  6
CONTINUOUS
 62
     7
 10
-83.648552
 20
110.41914
 11
-63.648552
 21
110.41914
  0
LINE
  8
0
  6
CONTINUOUS
 62
     7
 10
-101.64855
 20
111.60419
 11
-101.64855
 21
89.604187
  0
LINE
  8
0
  6
CONTINUOUS
 62
     7
 10
-97.648552
 20
111.60419
 11
-97.648552
 21
89.604187
  0
LINE
  8
0
  6
CONTINUOUS
 62
     7
 10
-83.648552
 20
115.32662
 11
-83.648552
 21
85.88176
  0
LINE
  8
0
  6
CONTINUOUS
 62
     7
 10
-63.648552
 20
115.32662
 11
-63.648552
 21
85.88176
  0
LINE
  8
0
  6
CONTINUOUS
 62
     7
 10
-23.64855
 20
111.60419
 11
-23.64855
 21
89.604187
  0
LINE
  8
0
  6
CONTINUOUS
 62
     7
 10
-101.64855
 20
111.60419
 11
-97.648552
 21
111.60419
  0
LINE
  8
0
  6
CONTINUOUS
 62
     7
 10
-101.64855
 20
89.604187
 11
-97.648552
 21
89.604187
  0
LINE
  8
0
  6
CONTINUOUS
 62
     7
 10
-61.648552
 20
112.60419
 11
-24.64855
 21
112.60419
  0
LINE
  8
0
  6
CONTINUOUS
 62
     7
 10
-61.648552
 20
88.604187
 11
-24.64855
 21
88.604187
  0
LINE
  8
0
  6
CONTINUOUS
 62
     7
 10
-61.648552
 20
112.60419
 11
-61.648552
 21
88.604187
  0
LINE
  8
0
  6
CONTINUOUS
 62
     7
 10
-63.648552
 20
111.60419
 11
-61.648552
 21
111.60419
  0
LINE
  8
0
  6
CONTINUOUS
 62
     7
 10
-63.648552
 20
89.604187
 11
-61.648552
 21
89.604187
  0
LINE
  8
0
  6
CONTINUOUS
 62
     7
 10
-61.648552
 20
89.604187
 11
-23.64855
 21
89.604187
  0
LINE
  8
0
  6
CONTINUOUS
 62
     7
 10
-61.648552
 20
111.60419
 11
-23.64855
 21
111.60419
  0
LINE
  8
0
  6
CONTINUOUS
 62
     7
 10
-23.648549
 20
89.604189
 11
-24.648551
 21
88.604188
  0
LINE
  8
0
  6
CONTINUOUS
 62
     7
 10
-23.648549
 20
111.60418
 11
-24.648551
 21
112.60418
  0
LINE
  8
0
  6
CONTINUOUS
 62
     7
 10
-24.64855
 20
112.60419
 11
-24.64855
 21
88.604187
  0
LINE
  8
0
  6
CONTINUOUS
 62
     7
 10
-97.648552
 20
92.804192
 11
-83.648552
 21
92.804192
  0
LINE
  8
0
  6
CONTINUOUS
 62
     7
 10
-97.648552
 20
108.4042
 11
-83.648552
 21
108.4042
  0
LINE
  8
0
  6
CENTER
 62
     7
 10
-63.56855
 20
100.60419
 11
-83.728554
 21
100.60419
  0
LINE
  8
0
  6
CENTER
 62
     7
 10
-73.648552
 20
110.68418
 11
-73.648552
 21
90.524185
  0
LINE
  8
0
  6
DASHED
 62
     7
 10
-101.64855
 20
98.304192
 11
-78.088142
 21
98.304192
  0
LINE
  8
0
  6
DASHED
 62
     7
 10
-101.64855
 20
102.90419
 11
-78.088142
 21
102.90419
  0
LINE
  8
0
  6
DASHED
 62
     7
 10
-27.148548
 20
100.60418
 11
-23.648547
 21
104.10419
  0
LINE
  8
0
  6
DASHED
 62
     7
 10
-27.148544
 20
100.60419
 11
-23.648546
 21
97.104189
  0
LINE
  8
0
  6
DASHED
 62
     7
 10
-27.148546
 20
177.86471
 11
-23.648549
 21
181.36471
  0
LINE
  8
0
  6
DASHED
 62
     7
 10
-27.148542
 20
177.86471
 11
-23.648547
 21
174.36472
  0
LINE
  8
0
  6
CONTINUOUS
 62
     7
 10
-83.648553
 20
161.86471
 11
-82.648552
 21
160.86471
  0
LINE
  8
0
  6
CONTINUOUS
 62
     7
 10
-64.648559
 20
160.86471
 11
-63.648557
 21
161.86472
  0
LINE
  8
0
  6
CONTINUOUS
 62
     7
 10
-63.64855
 20
193.86471
 11
-64.648552
 21
194.86471
  0
LINE
  8
0
  6
CONTINUOUS
 62
     7
 10
-82.648547
 20
194.86472
 11
-83.648549
 21
193.86472
  0
LINE
  8
0
  6
CONTINUOUS
 62
     7
 10
-82.648552
 20
177.8647
 11
-64.648552
 21
177.8647
  0
CIRCLE
  8
0
  6
CONTINUOUS
 62
     7
 10
-143.69986
 20
177.8647
 40
11
  0
CIRCLE
  8
0
  6
CONTINUOUS
 62
     7
 10
-73.648552
 20
100.60419
 40
5
  0
CIRCLE
  8
0
  6
CONTINUOUS
 62
     7
 10
-73.648552
 20
100.60419
 40
4.0999999
  0
CIRCLE
  8
0
  6
DASHED
 62
     7
 10
-143.69986
 20
177.8647
 40
7.8000002
  0
ARC
  8
0
  6
CONTINUOUS
 62
     7
 10
-47.023552
 20
169.3647
 40
36.625
 50
166.58032
 51
193.41967
  0
ARC
  8
0
  6
CONTINUOUS
 62
     7
 10
-47.023552
 20
186.3647
 40
36.625
 50
166.58032
 51
193.41967
  0
ARC
  8
0
  6
CONTINUOUS
 62
     7
 10
-100.27355
 20
186.3647
 40
36.625
 50
346.58033
 51
13.419674
  0
ARC
  8
0
  6
CONTINUOUS
 62
     7
 10
-100.27355
 20
169.3647
 40
36.625
 50
346.58033
 51
13.419674
  0
ARC
  8
0
  6
CONTINUOUS
 62
     7
 10
-34.981884
 20
100.60419
 40
48.666668
 50
168.36496
 51
191.63505
  0
ARC
  8
0
  6
CONTINUOUS
 62
     7
 10
-71.106888
 20
85.88176
 40
12.541667
 50
156.96497
 51
203.03504
  0
ARC
  8
0
  6
CONTINUOUS
 62
     7
 10
-71.106888
 20
115.32662
 40
12.541667
 50
156.96497
 51
203.03504
  0
ARC
  8
0
  6
CONTINUOUS
 62
     7
 10
-112.31522
 20
100.60419
 40
48.666668
 50
348.36495
 51
11.635051
  0
ARC
  8
0
  6
CONTINUOUS
 62
     7
 10
-76.190216
 20
85.88176
 40
12.541667
 50
336.96497
 51
23.035032
  0
ARC
  8
0
  6
CONTINUOUS
 62
     7
 10
-76.190216
 20
115.32662
 40
12.541667
 50
336.96497
 51
23.035032
  0
CIRCLE
  8
0
  6
CONTINUOUS
 62
     7
 10
-143.69986
 20
177.8647
 40
17
  0
CIRCLE
  8
0
  6
CONTINUOUS
 62
     7
 10
-143.69986
 20
177.8647
 40
4
  0
TEXT
  8
0
  6
CONTINUOUS
 62
     7
 10
-57.714838
 20
28.928085
 40
4.8000002
 41
0.72572661
  1
吸着金具固定式（スモール）
  0
TEXT
  8
0
  6
CONTINUOUS
 62
     7
 10
-57.31721
 20
15.602684
 40
4.8000002
 41
0.84409461
  1
ＶＦＩＬＫ－Ｓ－Ｍ１２
  0
TEXT
  8
0
  6
CONTINUOUS
 62
     7
 10
-43.899613
 20
4.2619162
 40
4.8000002
 41
0.84741096
  1
２１０６９８
  0
INSERT
  8
0
  6
CONTINUOUS
 62
     7
  2
KOZU0001
 10
-71.751784
 20
105.23045
  0
INSERT
  8
0
  6
CONTINUOUS
 62
     7
  2
KOZU0002
 10
-47.610884
 20
189.86471
  0
ENDSEC
  0
EOF
