  0
SECTION
  2
HEADER
  9
$EXTMAX
 10
1.2182922
 20
274.528
 30
0
  9
$EXTMIN
 10
-177.2301
 20
-1.0560455
 30
0
  9
$LIMMAX
 10
1.2182922
 20
274.528
  9
$LIMMIN
 10
-177.2301
 20
-1.0560455
  9
$PLIMMAX
 10
1.2182922
 20
274.528
  9
$PLIMMIN
 10
-177.2301
 20
-1.0560455
  9
$PEXTMAX
 10
1.2182922
 20
274.528
 30
0
  9
$PEXTMIN
 10
-177.2301
 20
-1.0560455
 30
0
  9
$TEXTSIZE
 40
3.2
  9
$DIMSHO
 70
     0
  9
$DIMASZ
 40
1.0
  9
$DIMTAD
 70
     1
  9
$DIMTIH
 70
     0
  9
$DIMTOH
 70
     0
  9
$DIMEXE
 40
2.54
  9
$DIMEXO
 40
2.54
  9
$DIMTVP
 40
1.0
  9
$DIMSAH
 70
     1
  9
$DIMDLE
 40
0.0
  9
$DIMTXT
 40
3.2
  9
$DIMGAP
 40
1.6
  0
ENDSEC
  0
SECTION
  2
TABLES
  0
TABLE
  2
LTYPE
 70
     39
  0
LTYPE
  2
CONTINUOUS
 70
    64
  3
Solid line
 72
    65
 73
     0
 40
0.0
  0
LTYPE
  2
ACAD_ISO02W100
 70
     0
  3
ISO dash __ __ __ __ __ __ __ __ __ __ __ __ __
 72
    65
 73
     2
 40
15.0
 49
12.0
 49
-3.0
  0
LTYPE
  2
ACAD_ISO03W100
 70
     0
  3
ISO dash space __    __    __    __    __    __
 72
    65
 73
     2
 40
30.0
 49
12.0
 49
-18.0
  0
LTYPE
  2
ACAD_ISO04W100
 70
     0
  3
ISO long-dash dot ____ . ____ . ____ . ____ . _
 72
    65
 73
     4
 40
30.0
 49
24.0
 49
-3.0
 49
0.0
 49
-3.0
  0
LTYPE
  2
ACAD_ISO05W100
 70
     0
  3
ISO long-dash double-dot ____ .. ____ .. ____ .
 72
    65
 73
     6
 40
33.0
 49
24.0
 49
-3.0
 49
0.0
 49
-3.0
 49
0.0
 49
-3.0
  0
LTYPE
  2
ACAD_ISO06W100
 70
     0
  3
ISO long-dash triple-dot ____ ... ____ ... ____
 72
    65
 73
     8
 40
36.0
 49
24.0
 49
-3.0
 49
0.0
 49
-3.0
 49
0.0
 49
-3.0
 49
0.0
 49
-3.0
  0
LTYPE
  2
ACAD_ISO07W100
 70
     0
  3
ISO dot . . . . . . . . . . . . . . . . . . . .
 72
    65
 73
     2
 40
3.0
 49
0.0
 49
-3.0
  0
LTYPE
  2
ACAD_ISO08W100
 70
     0
  3
ISO long-dash short-dash ____ __ ____ __ ____ _
 72
    65
 73
     4
 40
36.0
 49
24.0
 49
-3.0
 49
6.0
 49
-3.0
  0
LTYPE
  2
ACAD_ISO09W100
 70
     0
  3
ISO long-dash double-short-dash ____ __ __ ____
 72
    65
 73
     6
 40
45.0
 49
24.0
 49
-3.0
 49
6.0
 49
-3.0
 49
6.0
 49
-3.0
  0
LTYPE
  2
ACAD_ISO10W100
 70
     0
  3
ISO dash dot __ . __ . __ . __ . __ . __ . __ .
 72
    65
 73
     4
 40
18.0
 49
12.0
 49
-3.0
 49
0.0
 49
-3.0
  0
LTYPE
  2
ACAD_ISO11W100
 70
     0
  3
ISO double-dash dot __ __ . __ __ . __ __ . __ 
 72
    65
 73
     6
 40
33.0
 49
12.0
 49
-3.0
 49
12.0
 49
-3.0
 49
0.0
 49
-3.0
  0
LTYPE
  2
ACAD_ISO12W100
 70
     0
  3
ISO dash double-dot __ . . __ . . __ . . __ . .
 72
    65
 73
     6
 40
21.0
 49
12.0
 49
-3.0
 49
0.0
 49
-3.0
 49
0.0
 49
-3.0
  0
LTYPE
  2
ACAD_ISO13W100
 70
     0
  3
ISO double-dash double-dot __ __ . . __ __ . . 
 72
    65
 73
     8
 40
36.0
 49
12.0
 49
-3.0
 49
12.0
 49
-3.0
 49
0.0
 49
-3.0
 49
0.0
 49
-3.0
  0
LTYPE
  2
ACAD_ISO14W100
 70
     0
  3
ISO dash triple-dot __ . . . __ . . . __ . . . 
 72
    65
 73
     8
 40
24.0
 49
12.0
 49
-3.0
 49
0.0
 49
-3.0
 49
0.0
 49
-3.0
 49
0.0
 49
-3.0
  0
LTYPE
  2
ACAD_ISO15W100
 70
     0
  3
ISO double-dash triple-dot __ __ . . . __ __ . 
 72
    65
 73
    10
 40
39.0
 49
12.0
 49
-3.0
 49
12.0
 49
-3.0
 49
0.0
 49
-3.0
 49
0.0
 49
-3.0
 49
0.0
 49
-3.0
  0
LTYPE
  2
BORDER
 70
    64
  3
Border __ __ . __ __ . __ __ . __ __ . __ __ .
 72
    65
 73
     6
 40
3.5
 49
1.0
 49
-0.5
 49
1.0
 49
-0.5
 49
0.0
 49
-0.5
  0
LTYPE
  2
BORDER2
 70
    64
  3
Border (.5x) __.__.__.__.__.__.__.__.__.__.__.
 72
    65
 73
     6
 40
1.75
 49
0.5
 49
-0.25
 49
0.5
 49
-0.25
 49
0.0
 49
-0.25
  0
LTYPE
  2
BORDERX2
 70
    64
  3
Border (2x) ____  ____  .  ____  ____  .  ___
 72
    65
 73
     6
 40
7.0
 49
2.0
 49
-1.0
 49
2.0
 49
-1.0
 49
0.0
 49
-1.0
  0
LTYPE
  2
CENTER
 70
    64
  3
Center ____ _ ____ _ ____ _ ____ _ ____ _ ____
 72
    65
 73
     4
 40
12.0
 49
7.5
 49
-1.5
 49
1.5
 49
-1.5
  0
LTYPE
  2
CENTER2
 70
    64
  3
Center (.5x) ___ _ ___ _ ___ _ ___ _ ___ _ ___
 72
    65
 73
     4
 40
6.0
 49
3.75
 49
-0.75
 49
0.75
 49
-0.75
  0
LTYPE
  2
CENTERX2
 70
    64
  3
Center (2x) ________  __  ________  __  _____
 72
    65
 73
     4
 40
24.0
 49
15.0
 49
-3.0
 49
3.0
 49
-3.0
  0
LTYPE
  2
DASHDOT
 70
    64
  3
Dash dot __ . __ . __ . __ . __ . __ . __ . __
 72
    65
 73
     4
 40
6.0
 49
3.0
 49
-1.5
 49
0.0
 49
-1.5
  0
LTYPE
  2
DASHDOT2
 70
    64
  3
Dash dot (.5x) _._._._._._._._._._._._._._._.
 72
    65
 73
     4
 40
3.0
 49
1.5
 49
-0.75
 49
0.0
 49
-0.75
  0
LTYPE
  2
DASHDOTX2
 70
    64
  3
Dash dot (2x) ____  .  ____  .  ____  .  ___
 72
    65
 73
     4
 40
12.0
 49
6.0
 49
-3.0
 49
0.0
 49
-3.0
  0
LTYPE
  2
DASHED
 70
    64
  3
Dashed __ __ __ __ __ __ __ __ __ __ __ __ __ _
 72
    65
 73
     2
 40
4.5
 49
3.0
 49
-1.5
  0
LTYPE
  2
DASHED2
 70
    64
  3
Dashed (.5x) _ _ _ _ _ _ _ _ _ _ _ _ _ _ _ _ _
 72
    65
 73
     2
 40
2.25
 49
1.5
 49
-0.75
  0
LTYPE
  2
DASHEDX2
 70
    64
  3
Dashed (2x) ____  ____  ____  ____  ____  ___
 72
    65
 73
     2
 40
9.0
 49
6.0
 49
-3.0
  0
LTYPE
  2
DIVIDE
 70
    64
  3
Divide ____ . . ____ . . ____ . . ____ . . ____
 72
    65
 73
     6
 40
7.5
 49
3.0
 49
-1.5
 49
0.0
 49
-1.5
 49
0.0
 49
-1.5
  0
LTYPE
  2
DIVIDE2
 70
    64
  3
Divide (.5x) __..__..__..__..__..__..__..__.._
 72
    65
 73
     6
 40
3.75
 49
1.5
 49
-0.75
 49
0.0
 49
-0.75
 49
0.0
 49
-0.75
  0
LTYPE
  2
DIVIDEX2
 70
    64
  3
Divide (2x) ________  .  .  ________  .  .  _
 72
    65
 73
     6
 40
15.0
 49
6.0
 49
-3.0
 49
0.0
 49
-3.0
 49
0.0
 49
-3.0
  0
LTYPE
  2
DOT
 70
    64
  3
Dot . . . . . . . . . . . . . . . . . . . . . .
 72
    65
 73
     2
 40
1.5
 49
0.0
 49
-1.5
  0
LTYPE
  2
DOT2
 70
    64
  3
Dot (.5x) .....................................
 72
    65
 73
     2
 40
0.75
 49
0.0
 49
-0.75
  0
LTYPE
  2
DOTX2
 70
    64
  3
Dot (2x) .  .  .  .  .  .  .  .  .  .  .  .  . 
 72
    65
 73
     2
 40
3.0
 49
0.0
 49
-3.0
  0
LTYPE
  2
HIDDEN
 70
    64
  3
Hidden __ __ __ __ __ __ __ __ __ __ __ __ __ _
 72
    65
 73
     2
 40
4.5
 49
3.0
 49
-1.5
  0
LTYPE
  2
HIDDEN2
 70
    64
  3
Hidden (.5x) _ _ _ _ _ _ _ _ _ _ _ _ _ _ _ _ _
 72
    65
 73
     2
 40
2.25
 49
1.5
 49
-0.75
  0
LTYPE
  2
HIDDENX2
 70
    64
  3
Hidden (2x) ____ ____ ____ ____ ____ ____ ____
 72
    65
 73
     2
 40
9.0
 49
6.0
 49
-3.0
  0
LTYPE
  2
PHANTOM
 70
    64
  3
Phantom ______  __  __  ______  __  __  ______
 72
    65
 73
     6
 40
15.0
 49
7.5
 49
-1.5
 49
1.5
 49
-1.5
 49
1.5
 49
-1.5
  0
LTYPE
  2
PHANTOM2
 70
    64
  3
Phantom (.5x) ___ _ _ ___ _ _ ___ _ _ ___ _ _
 72
    65
 73
     6
 40
7.5
 49
3.75
 49
-0.75
 49
0.75
 49
-0.75
 49
0.75
 49
-0.75
  0
LTYPE
  2
PHANTOMX2
 70
    64
  3
Phantom (2x) ____________    ____    ____   _
 72
    65
 73
     6
 40
30.0
 49
15.0
 49
-3.0
 49
3.0
 49
-3.0
 49
3.0
 49
-3.0
  0
ENDTAB
  0
TABLE
  2
LAYER
 70
     1
  0
LAYER
  2
0
 70
     0
 62
     7
  6
CONTINUOUS
  0
ENDTAB
  0
TABLE
  2
STYLE
 70
     1
  0
STYLE
  2
STANDARD
 70
     0
 40
0.0
 41
1.0
 50
0.0
 71
     0
 42
0.2
  3
txt
  4
BIGFONT
  0
ENDTAB
  0
TABLE
  2
DIMSTYLE
 70
     0
  0
ENDTAB
  0
ENDSEC
  0
SECTION
  2
BLOCKS
  0
ENDSEC
  0
SECTION
  2
ENTITIES
  0
POINT
  8
0
  6
CONTINUOUS
 62
     7
 10
0
 20
0
  0
POINT
  8
0
  6
CONTINUOUS
 62
     7
 10
-176.8
 20
274.5
  0
POINT
  8
0
  6
CONTINUOUS
 62
     7
 10
-176.8
 20
0
  0
POINT
  8
0
  6
CONTINUOUS
 62
     7
 10
0
 20
0
  0
POINT
  8
0
  6
CONTINUOUS
 62
     7
 10
0
 20
274.5
  0
LINE
  8
0
  6
CONTINUOUS
 62
     7
 10
-112.57001
 20
222.79999
 11
-112.57001
 21
122.8
  0
LINE
  8
0
  6
CONTINUOUS
 62
     7
 10
-62.570004
 20
222.79999
 11
-62.570004
 21
122.8
  0
LINE
  8
0
  6
CONTINUOUS
 62
     7
 10
-112.57001
 20
122.8
 11
-62.570004
 21
122.8
  0
LINE
  8
0
  6
CONTINUOUS
 62
     7
 10
-112.57001
 20
222.79999
 11
-62.570004
 21
222.79999
  0
LINE
  8
0
  6
CONTINUOUS
 62
     7
 10
-112.57001
 20
71.649994
 11
-62.570004
 21
71.649994
  0
LINE
  8
0
  6
CONTINUOUS
 62
     7
 10
-112.57001
 20
76.649994
 11
-62.570004
 21
76.649994
  0
LINE
  8
0
  6
CONTINUOUS
 62
     7
 10
-112.57001
 20
76.649994
 11
-112.57001
 21
71.649994
  0
LINE
  8
0
  6
CONTINUOUS
 62
     7
 10
-62.570004
 20
76.649994
 11
-62.570004
 21
71.649994
  0
LINE
  8
0
  6
DASHED
 62
     7
 10
-111.57001
 20
75.649994
 11
-108.57001
 21
75.649994
  0
LINE
  8
0
  6
DASHED
 62
     7
 10
-111.57001
 20
76.649994
 11
-111.57001
 21
75.649994
  0
LINE
  8
0
  6
DASHED
 62
     7
 10
-108.57001
 20
76.649994
 11
-108.57001
 21
75.649994
  0
LINE
  8
0
  6
DASHED
 62
     7
 10
-107.57001
 20
76.649994
 11
-107.57001
 21
75.649994
  0
LINE
  8
0
  6
DASHED
 62
     7
 10
-104.57001
 20
76.649994
 11
-104.57001
 21
75.649994
  0
LINE
  8
0
  6
DASHED
 62
     7
 10
-103.57001
 20
76.649994
 11
-103.57001
 21
75.649994
  0
LINE
  8
0
  6
DASHED
 62
     7
 10
-100.57001
 20
76.649994
 11
-100.57001
 21
75.649994
  0
LINE
  8
0
  6
DASHED
 62
     7
 10
-99.570007
 20
76.649994
 11
-99.570007
 21
75.649994
  0
LINE
  8
0
  6
DASHED
 62
     7
 10
-96.570007
 20
76.649994
 11
-96.570007
 21
75.649994
  0
LINE
  8
0
  6
DASHED
 62
     7
 10
-95.570007
 20
76.649994
 11
-95.570007
 21
75.649994
  0
LINE
  8
0
  6
DASHED
 62
     7
 10
-92.570007
 20
76.649994
 11
-92.570007
 21
75.649994
  0
LINE
  8
0
  6
DASHED
 62
     7
 10
-91.570007
 20
76.649994
 11
-91.570007
 21
75.649994
  0
LINE
  8
0
  6
DASHED
 62
     7
 10
-88.570007
 20
76.649994
 11
-88.570007
 21
75.649994
  0
LINE
  8
0
  6
DASHED
 62
     7
 10
-87.570007
 20
76.649994
 11
-87.570007
 21
75.649994
  0
LINE
  8
0
  6
DASHED
 62
     7
 10
-84.570007
 20
76.649994
 11
-84.570007
 21
75.649994
  0
LINE
  8
0
  6
DASHED
 62
     7
 10
-83.570007
 20
76.649994
 11
-83.570007
 21
75.649994
  0
LINE
  8
0
  6
DASHED
 62
     7
 10
-80.570007
 20
76.649994
 11
-80.570007
 21
75.649994
  0
LINE
  8
0
  6
DASHED
 62
     7
 10
-79.570007
 20
76.649994
 11
-79.570007
 21
75.649994
  0
LINE
  8
0
  6
DASHED
 62
     7
 10
-76.570007
 20
76.649994
 11
-76.570007
 21
75.649994
  0
LINE
  8
0
  6
DASHED
 62
     7
 10
-75.570007
 20
76.649994
 11
-75.570007
 21
75.649994
  0
LINE
  8
0
  6
DASHED
 62
     7
 10
-72.570007
 20
76.649994
 11
-72.570007
 21
75.649994
  0
LINE
  8
0
  6
DASHED
 62
     7
 10
-71.570007
 20
76.649994
 11
-71.570007
 21
75.649994
  0
LINE
  8
0
  6
DASHED
 62
     7
 10
-68.570007
 20
76.649994
 11
-68.570007
 21
75.649994
  0
LINE
  8
0
  6
DASHED
 62
     7
 10
-67.570007
 20
76.649994
 11
-67.570007
 21
75.649994
  0
LINE
  8
0
  6
DASHED
 62
     7
 10
-64.570007
 20
76.649994
 11
-64.570007
 21
75.649994
  0
LINE
  8
0
  6
DASHED
 62
     7
 10
-63.570007
 20
76.649994
 11
-63.570007
 21
75.649994
  0
LINE
  8
0
  6
DASHED
 62
     7
 10
-107.57001
 20
75.649994
 11
-104.57001
 21
75.649994
  0
LINE
  8
0
  6
DASHED
 62
     7
 10
-103.57001
 20
75.649994
 11
-100.57001
 21
75.649994
  0
LINE
  8
0
  6
DASHED
 62
     7
 10
-99.570007
 20
75.649994
 11
-96.570007
 21
75.649994
  0
LINE
  8
0
  6
DASHED
 62
     7
 10
-95.570007
 20
75.649994
 11
-92.570007
 21
75.649994
  0
LINE
  8
0
  6
DASHED
 62
     7
 10
-91.570007
 20
75.649994
 11
-88.570007
 21
75.649994
  0
LINE
  8
0
  6
DASHED
 62
     7
 10
-87.570007
 20
75.649994
 11
-84.570007
 21
75.649994
  0
LINE
  8
0
  6
DASHED
 62
     7
 10
-83.570007
 20
75.649994
 11
-80.570007
 21
75.649994
  0
LINE
  8
0
  6
DASHED
 62
     7
 10
-79.570007
 20
75.649994
 11
-76.570007
 21
75.649994
  0
LINE
  8
0
  6
DASHED
 62
     7
 10
-75.570007
 20
75.649994
 11
-72.570007
 21
75.649994
  0
LINE
  8
0
  6
DASHED
 62
     7
 10
-71.570007
 20
75.649994
 11
-68.570007
 21
75.649994
  0
LINE
  8
0
  6
DASHED
 62
     7
 10
-67.570007
 20
75.649994
 11
-64.570007
 21
75.649994
  0
LINE
  8
0
  6
DASHED
 62
     7
 10
-63.570007
 20
75.649994
 11
-62.570004
 21
75.649994
  0
LINE
  8
0
  6
CONTINUOUS
 62
     7
 10
-88.070007
 20
126.29999
 11
-88.070007
 21
123.29999
  0
LINE
  8
0
  6
CONTINUOUS
 62
     7
 10
-87.070007
 20
126.29999
 11
-87.070007
 21
123.29999
  0
LINE
  8
0
  6
CONTINUOUS
 62
     7
 10
-84.070007
 20
126.29999
 11
-84.070007
 21
123.29999
  0
LINE
  8
0
  6
CONTINUOUS
 62
     7
 10
-83.070007
 20
126.29999
 11
-83.070007
 21
123.29999
  0
LINE
  8
0
  6
CONTINUOUS
 62
     7
 10
-80.070007
 20
126.29999
 11
-80.070007
 21
123.41057
  0
LINE
  8
0
  6
CONTINUOUS
 62
     7
 10
-79.070007
 20
126.29999
 11
-79.070007
 21
123.29999
  0
LINE
  8
0
  6
CONTINUOUS
 62
     7
 10
-76.070007
 20
126.29999
 11
-76.070007
 21
123.29999
  0
LINE
  8
0
  6
CONTINUOUS
 62
     7
 10
-75.070007
 20
126.29999
 11
-75.070007
 21
123.29999
  0
LINE
  8
0
  6
CONTINUOUS
 62
     7
 10
-72.070007
 20
126.29999
 11
-72.070007
 21
123.29999
  0
LINE
  8
0
  6
CONTINUOUS
 62
     7
 10
-71.070007
 20
126.29999
 11
-71.070007
 21
123.29999
  0
LINE
  8
0
  6
CONTINUOUS
 62
     7
 10
-68.070007
 20
126.29999
 11
-68.070007
 21
123.29999
  0
LINE
  8
0
  6
CONTINUOUS
 62
     7
 10
-67.070007
 20
126.29999
 11
-67.070007
 21
123.29999
  0
LINE
  8
0
  6
CONTINUOUS
 62
     7
 10
-64.070007
 20
126.29999
 11
-64.070007
 21
123.29999
  0
LINE
  8
0
  6
CONTINUOUS
 62
     7
 10
-91.070007
 20
126.29999
 11
-91.070007
 21
123.29999
  0
LINE
  8
0
  6
CONTINUOUS
 62
     7
 10
-92.070007
 20
126.29999
 11
-92.070007
 21
123.29999
  0
LINE
  8
0
  6
CONTINUOUS
 62
     7
 10
-95.070007
 20
126.29999
 11
-95.070007
 21
123.29999
  0
LINE
  8
0
  6
CONTINUOUS
 62
     7
 10
-96.070007
 20
126.29999
 11
-96.070007
 21
123.29999
  0
LINE
  8
0
  6
CONTINUOUS
 62
     7
 10
-99.070007
 20
126.29999
 11
-99.070007
 21
123.29999
  0
LINE
  8
0
  6
CONTINUOUS
 62
     7
 10
-100.07001
 20
126.29999
 11
-100.07001
 21
123.29999
  0
LINE
  8
0
  6
CONTINUOUS
 62
     7
 10
-103.07001
 20
126.29999
 11
-103.07001
 21
123.29999
  0
LINE
  8
0
  6
CONTINUOUS
 62
     7
 10
-104.07001
 20
126.29999
 11
-104.07001
 21
123.29999
  0
LINE
  8
0
  6
CONTINUOUS
 62
     7
 10
-107.07001
 20
126.29999
 11
-107.07001
 21
123.29999
  0
LINE
  8
0
  6
CONTINUOUS
 62
     7
 10
-108.07001
 20
126.29999
 11
-108.07001
 21
123.29999
  0
LINE
  8
0
  6
CONTINUOUS
 62
     7
 10
-111.07001
 20
126.29999
 11
-111.07001
 21
123.29999
  0
LINE
  8
0
  6
CONTINUOUS
 62
     7
 10
-111.07001
 20
123.29999
 11
-108.07001
 21
123.29999
  0
LINE
  8
0
  6
CONTINUOUS
 62
     7
 10
-111.07001
 20
126.29999
 11
-108.07001
 21
126.29999
  0
LINE
  8
0
  6
CONTINUOUS
 62
     7
 10
-107.07001
 20
126.29999
 11
-104.07001
 21
126.29999
  0
LINE
  8
0
  6
CONTINUOUS
 62
     7
 10
-103.07001
 20
126.29999
 11
-100.07001
 21
126.29999
  0
LINE
  8
0
  6
CONTINUOUS
 62
     7
 10
-99.070007
 20
126.29999
 11
-96.070007
 21
126.29999
  0
LINE
  8
0
  6
CONTINUOUS
 62
     7
 10
-95.070007
 20
126.29999
 11
-92.070007
 21
126.29999
  0
LINE
  8
0
  6
CONTINUOUS
 62
     7
 10
-91.070007
 20
126.29999
 11
-88.070007
 21
126.29999
  0
LINE
  8
0
  6
CONTINUOUS
 62
     7
 10
-87.070007
 20
126.29999
 11
-84.070007
 21
126.29999
  0
LINE
  8
0
  6
CONTINUOUS
 62
     7
 10
-83.070007
 20
126.29999
 11
-80.070007
 21
126.29999
  0
LINE
  8
0
  6
CONTINUOUS
 62
     7
 10
-79.070007
 20
126.29999
 11
-76.070007
 21
126.29999
  0
LINE
  8
0
  6
CONTINUOUS
 62
     7
 10
-75.070007
 20
126.29999
 11
-72.070007
 21
126.29999
  0
LINE
  8
0
  6
CONTINUOUS
 62
     7
 10
-71.070007
 20
126.29999
 11
-68.070007
 21
126.29999
  0
LINE
  8
0
  6
CONTINUOUS
 62
     7
 10
-67.070007
 20
126.29999
 11
-64.070007
 21
126.29999
  0
LINE
  8
0
  6
CONTINUOUS
 62
     7
 10
-67.070007
 20
123.29999
 11
-64.070007
 21
123.29999
  0
LINE
  8
0
  6
CONTINUOUS
 62
     7
 10
-71.070007
 20
123.29999
 11
-68.070007
 21
123.29999
  0
LINE
  8
0
  6
CONTINUOUS
 62
     7
 10
-75.070007
 20
123.29999
 11
-72.070007
 21
123.29999
  0
LINE
  8
0
  6
CONTINUOUS
 62
     7
 10
-79.070007
 20
123.29999
 11
-76.070007
 21
123.29999
  0
LINE
  8
0
  6
CONTINUOUS
 62
     7
 10
-83.070007
 20
123.29999
 11
-80.070007
 21
123.29999
  0
LINE
  8
0
  6
CONTINUOUS
 62
     7
 10
-87.070007
 20
123.29999
 11
-84.070007
 21
123.29999
  0
LINE
  8
0
  6
CONTINUOUS
 62
     7
 10
-91.070007
 20
123.29999
 11
-88.070007
 21
123.29999
  0
LINE
  8
0
  6
CONTINUOUS
 62
     7
 10
-95.070007
 20
123.29999
 11
-92.070007
 21
123.29999
  0
LINE
  8
0
  6
CONTINUOUS
 62
     7
 10
-99.070007
 20
123.29999
 11
-96.070007
 21
123.29999
  0
LINE
  8
0
  6
CONTINUOUS
 62
     7
 10
-103.07001
 20
123.29999
 11
-100.07001
 21
123.29999
  0
LINE
  8
0
  6
CONTINUOUS
 62
     7
 10
-107.07001
 20
123.29999
 11
-104.07001
 21
123.29999
  0
LINE
  8
0
  6
CONTINUOUS
 62
     7
 10
-88.070007
 20
222.29999
 11
-88.070007
 21
219.29999
  0
LINE
  8
0
  6
CONTINUOUS
 62
     7
 10
-87.070007
 20
222.29999
 11
-87.070007
 21
219.29999
  0
LINE
  8
0
  6
CONTINUOUS
 62
     7
 10
-84.070007
 20
222.29999
 11
-84.070007
 21
219.29999
  0
LINE
  8
0
  6
CONTINUOUS
 62
     7
 10
-83.070007
 20
222.29999
 11
-83.070007
 21
219.29999
  0
LINE
  8
0
  6
CONTINUOUS
 62
     7
 10
-80.070007
 20
222.29999
 11
-80.070007
 21
219.41057
  0
LINE
  8
0
  6
CONTINUOUS
 62
     7
 10
-79.070007
 20
222.29999
 11
-79.070007
 21
219.29999
  0
LINE
  8
0
  6
CONTINUOUS
 62
     7
 10
-76.070007
 20
222.29999
 11
-76.070007
 21
219.29999
  0
LINE
  8
0
  6
CONTINUOUS
 62
     7
 10
-75.070007
 20
222.29999
 11
-75.070007
 21
219.29999
  0
LINE
  8
0
  6
CONTINUOUS
 62
     7
 10
-72.070007
 20
222.29999
 11
-72.070007
 21
219.29999
  0
LINE
  8
0
  6
CONTINUOUS
 62
     7
 10
-71.070007
 20
222.29999
 11
-71.070007
 21
219.29999
  0
LINE
  8
0
  6
CONTINUOUS
 62
     7
 10
-68.070007
 20
222.29999
 11
-68.070007
 21
219.29999
  0
LINE
  8
0
  6
CONTINUOUS
 62
     7
 10
-67.070007
 20
222.29999
 11
-67.070007
 21
219.29999
  0
LINE
  8
0
  6
CONTINUOUS
 62
     7
 10
-64.070007
 20
222.29999
 11
-64.070007
 21
219.29999
  0
LINE
  8
0
  6
CONTINUOUS
 62
     7
 10
-91.070007
 20
222.29999
 11
-91.070007
 21
219.29999
  0
LINE
  8
0
  6
CONTINUOUS
 62
     7
 10
-92.070007
 20
222.29999
 11
-92.070007
 21
219.29999
  0
LINE
  8
0
  6
CONTINUOUS
 62
     7
 10
-95.070007
 20
222.29999
 11
-95.070007
 21
219.29999
  0
LINE
  8
0
  6
CONTINUOUS
 62
     7
 10
-96.070007
 20
222.29999
 11
-96.070007
 21
219.29999
  0
LINE
  8
0
  6
CONTINUOUS
 62
     7
 10
-99.070007
 20
222.29999
 11
-99.070007
 21
219.29999
  0
LINE
  8
0
  6
CONTINUOUS
 62
     7
 10
-100.07001
 20
222.29999
 11
-100.07001
 21
219.29999
  0
LINE
  8
0
  6
CONTINUOUS
 62
     7
 10
-103.07001
 20
222.29999
 11
-103.07001
 21
219.29999
  0
LINE
  8
0
  6
CONTINUOUS
 62
     7
 10
-104.07001
 20
222.29999
 11
-104.07001
 21
219.29999
  0
LINE
  8
0
  6
CONTINUOUS
 62
     7
 10
-107.07001
 20
222.29999
 11
-107.07001
 21
219.29999
  0
LINE
  8
0
  6
CONTINUOUS
 62
     7
 10
-108.07001
 20
222.29999
 11
-108.07001
 21
219.29999
  0
LINE
  8
0
  6
CONTINUOUS
 62
     7
 10
-111.07001
 20
222.29999
 11
-111.07001
 21
219.29999
  0
LINE
  8
0
  6
CONTINUOUS
 62
     7
 10
-111.07001
 20
219.29999
 11
-108.07001
 21
219.29999
  0
LINE
  8
0
  6
CONTINUOUS
 62
     7
 10
-111.07001
 20
222.29999
 11
-108.07001
 21
222.29999
  0
LINE
  8
0
  6
CONTINUOUS
 62
     7
 10
-107.07001
 20
222.29999
 11
-104.07001
 21
222.29999
  0
LINE
  8
0
  6
CONTINUOUS
 62
     7
 10
-103.07001
 20
222.29999
 11
-100.07001
 21
222.29999
  0
LINE
  8
0
  6
CONTINUOUS
 62
     7
 10
-99.070007
 20
222.29999
 11
-96.070007
 21
222.29999
  0
LINE
  8
0
  6
CONTINUOUS
 62
     7
 10
-95.070007
 20
222.29999
 11
-92.070007
 21
222.29999
  0
LINE
  8
0
  6
CONTINUOUS
 62
     7
 10
-91.070007
 20
222.29999
 11
-88.070007
 21
222.29999
  0
LINE
  8
0
  6
CONTINUOUS
 62
     7
 10
-87.070007
 20
222.29999
 11
-84.070007
 21
222.29999
  0
LINE
  8
0
  6
CONTINUOUS
 62
     7
 10
-83.070007
 20
222.29999
 11
-80.070007
 21
222.29999
  0
LINE
  8
0
  6
CONTINUOUS
 62
     7
 10
-79.070007
 20
222.29999
 11
-76.070007
 21
222.29999
  0
LINE
  8
0
  6
CONTINUOUS
 62
     7
 10
-75.070007
 20
222.29999
 11
-72.070007
 21
222.29999
  0
LINE
  8
0
  6
CONTINUOUS
 62
     7
 10
-71.070007
 20
222.29999
 11
-68.070007
 21
222.29999
  0
LINE
  8
0
  6
CONTINUOUS
 62
     7
 10
-67.070007
 20
222.29999
 11
-64.070007
 21
222.29999
  0
LINE
  8
0
  6
CONTINUOUS
 62
     7
 10
-67.070007
 20
219.29999
 11
-64.070007
 21
219.29999
  0
LINE
  8
0
  6
CONTINUOUS
 62
     7
 10
-71.070007
 20
219.29999
 11
-68.070007
 21
219.29999
  0
LINE
  8
0
  6
CONTINUOUS
 62
     7
 10
-75.070007
 20
219.29999
 11
-72.070007
 21
219.29999
  0
LINE
  8
0
  6
CONTINUOUS
 62
     7
 10
-79.070007
 20
219.29999
 11
-76.070007
 21
219.29999
  0
LINE
  8
0
  6
CONTINUOUS
 62
     7
 10
-83.070007
 20
219.29999
 11
-80.070007
 21
219.29999
  0
LINE
  8
0
  6
CONTINUOUS
 62
     7
 10
-87.070007
 20
219.29999
 11
-84.070007
 21
219.29999
  0
LINE
  8
0
  6
CONTINUOUS
 62
     7
 10
-91.070007
 20
219.29999
 11
-88.070007
 21
219.29999
  0
LINE
  8
0
  6
CONTINUOUS
 62
     7
 10
-95.070007
 20
219.29999
 11
-92.070007
 21
219.29999
  0
LINE
  8
0
  6
CONTINUOUS
 62
     7
 10
-99.070007
 20
219.29999
 11
-96.070007
 21
219.29999
  0
LINE
  8
0
  6
CONTINUOUS
 62
     7
 10
-103.07001
 20
219.29999
 11
-100.07001
 21
219.29999
  0
LINE
  8
0
  6
CONTINUOUS
 62
     7
 10
-107.07001
 20
219.29999
 11
-104.07001
 21
219.29999
  0
LINE
  8
0
  6
CONTINUOUS
 62
     7
 10
-88.070007
 20
218.29999
 11
-88.070007
 21
215.29999
  0
LINE
  8
0
  6
CONTINUOUS
 62
     7
 10
-87.070007
 20
218.29999
 11
-87.070007
 21
215.29999
  0
LINE
  8
0
  6
CONTINUOUS
 62
     7
 10
-84.070007
 20
218.29999
 11
-84.070007
 21
215.29999
  0
LINE
  8
0
  6
CONTINUOUS
 62
     7
 10
-83.070007
 20
218.29999
 11
-83.070007
 21
215.29999
  0
LINE
  8
0
  6
CONTINUOUS
 62
     7
 10
-80.070007
 20
218.29999
 11
-80.070007
 21
215.41057
  0
LINE
  8
0
  6
CONTINUOUS
 62
     7
 10
-79.070007
 20
218.29999
 11
-79.070007
 21
215.29999
  0
LINE
  8
0
  6
CONTINUOUS
 62
     7
 10
-76.070007
 20
218.29999
 11
-76.070007
 21
215.29999
  0
LINE
  8
0
  6
CONTINUOUS
 62
     7
 10
-75.070007
 20
218.29999
 11
-75.070007
 21
215.29999
  0
LINE
  8
0
  6
CONTINUOUS
 62
     7
 10
-72.070007
 20
218.29999
 11
-72.070007
 21
215.29999
  0
LINE
  8
0
  6
CONTINUOUS
 62
     7
 10
-71.070007
 20
218.29999
 11
-71.070007
 21
215.29999
  0
LINE
  8
0
  6
CONTINUOUS
 62
     7
 10
-68.070007
 20
218.29999
 11
-68.070007
 21
215.29999
  0
LINE
  8
0
  6
CONTINUOUS
 62
     7
 10
-67.070007
 20
218.29999
 11
-67.070007
 21
215.29999
  0
LINE
  8
0
  6
CONTINUOUS
 62
     7
 10
-64.070007
 20
218.29999
 11
-64.070007
 21
215.29999
  0
LINE
  8
0
  6
CONTINUOUS
 62
     7
 10
-91.070007
 20
218.29999
 11
-91.070007
 21
215.29999
  0
LINE
  8
0
  6
CONTINUOUS
 62
     7
 10
-92.070007
 20
218.29999
 11
-92.070007
 21
215.29999
  0
LINE
  8
0
  6
CONTINUOUS
 62
     7
 10
-95.070007
 20
218.29999
 11
-95.070007
 21
215.29999
  0
LINE
  8
0
  6
CONTINUOUS
 62
     7
 10
-96.070007
 20
218.29999
 11
-96.070007
 21
215.29999
  0
LINE
  8
0
  6
CONTINUOUS
 62
     7
 10
-99.070007
 20
218.29999
 11
-99.070007
 21
215.29999
  0
LINE
  8
0
  6
CONTINUOUS
 62
     7
 10
-100.07001
 20
218.29999
 11
-100.07001
 21
215.29999
  0
LINE
  8
0
  6
CONTINUOUS
 62
     7
 10
-103.07001
 20
218.29999
 11
-103.07001
 21
215.29999
  0
LINE
  8
0
  6
CONTINUOUS
 62
     7
 10
-104.07001
 20
218.29999
 11
-104.07001
 21
215.29999
  0
LINE
  8
0
  6
CONTINUOUS
 62
     7
 10
-107.07001
 20
218.29999
 11
-107.07001
 21
215.29999
  0
LINE
  8
0
  6
CONTINUOUS
 62
     7
 10
-108.07001
 20
218.29999
 11
-108.07001
 21
215.29999
  0
LINE
  8
0
  6
CONTINUOUS
 62
     7
 10
-111.07001
 20
218.29999
 11
-111.07001
 21
215.29999
  0
LINE
  8
0
  6
CONTINUOUS
 62
     7
 10
-111.07001
 20
215.29999
 11
-108.07001
 21
215.29999
  0
LINE
  8
0
  6
CONTINUOUS
 62
     7
 10
-111.07001
 20
218.29999
 11
-108.07001
 21
218.29999
  0
LINE
  8
0
  6
CONTINUOUS
 62
     7
 10
-107.07001
 20
218.29999
 11
-104.07001
 21
218.29999
  0
LINE
  8
0
  6
CONTINUOUS
 62
     7
 10
-103.07001
 20
218.29999
 11
-100.07001
 21
218.29999
  0
LINE
  8
0
  6
CONTINUOUS
 62
     7
 10
-99.070007
 20
218.29999
 11
-96.070007
 21
218.29999
  0
LINE
  8
0
  6
CONTINUOUS
 62
     7
 10
-95.070007
 20
218.29999
 11
-92.070007
 21
218.29999
  0
LINE
  8
0
  6
CONTINUOUS
 62
     7
 10
-91.070007
 20
218.29999
 11
-88.070007
 21
218.29999
  0
LINE
  8
0
  6
CONTINUOUS
 62
     7
 10
-87.070007
 20
218.29999
 11
-84.070007
 21
218.29999
  0
LINE
  8
0
  6
CONTINUOUS
 62
     7
 10
-83.070007
 20
218.29999
 11
-80.070007
 21
218.29999
  0
LINE
  8
0
  6
CONTINUOUS
 62
     7
 10
-79.070007
 20
218.29999
 11
-76.070007
 21
218.29999
  0
LINE
  8
0
  6
CONTINUOUS
 62
     7
 10
-75.070007
 20
218.29999
 11
-72.070007
 21
218.29999
  0
LINE
  8
0
  6
CONTINUOUS
 62
     7
 10
-71.070007
 20
218.29999
 11
-68.070007
 21
218.29999
  0
LINE
  8
0
  6
CONTINUOUS
 62
     7
 10
-67.070007
 20
218.29999
 11
-64.070007
 21
218.29999
  0
LINE
  8
0
  6
CONTINUOUS
 62
     7
 10
-67.070007
 20
215.29999
 11
-64.070007
 21
215.29999
  0
LINE
  8
0
  6
CONTINUOUS
 62
     7
 10
-71.070007
 20
215.29999
 11
-68.070007
 21
215.29999
  0
LINE
  8
0
  6
CONTINUOUS
 62
     7
 10
-75.070007
 20
215.29999
 11
-72.070007
 21
215.29999
  0
LINE
  8
0
  6
CONTINUOUS
 62
     7
 10
-79.070007
 20
215.29999
 11
-76.070007
 21
215.29999
  0
LINE
  8
0
  6
CONTINUOUS
 62
     7
 10
-83.070007
 20
215.29999
 11
-80.070007
 21
215.29999
  0
LINE
  8
0
  6
CONTINUOUS
 62
     7
 10
-87.070007
 20
215.29999
 11
-84.070007
 21
215.29999
  0
LINE
  8
0
  6
CONTINUOUS
 62
     7
 10
-91.070007
 20
215.29999
 11
-88.070007
 21
215.29999
  0
LINE
  8
0
  6
CONTINUOUS
 62
     7
 10
-95.070007
 20
215.29999
 11
-92.070007
 21
215.29999
  0
LINE
  8
0
  6
CONTINUOUS
 62
     7
 10
-99.070007
 20
215.29999
 11
-96.070007
 21
215.29999
  0
LINE
  8
0
  6
CONTINUOUS
 62
     7
 10
-103.07001
 20
215.29999
 11
-100.07001
 21
215.29999
  0
LINE
  8
0
  6
CONTINUOUS
 62
     7
 10
-107.07001
 20
215.29999
 11
-104.07001
 21
215.29999
  0
LINE
  8
0
  6
CONTINUOUS
 62
     7
 10
-88.070007
 20
214.29999
 11
-88.070007
 21
211.29999
  0
LINE
  8
0
  6
CONTINUOUS
 62
     7
 10
-87.070007
 20
214.29999
 11
-87.070007
 21
211.29999
  0
LINE
  8
0
  6
CONTINUOUS
 62
     7
 10
-84.070007
 20
214.29999
 11
-84.070007
 21
211.29999
  0
LINE
  8
0
  6
CONTINUOUS
 62
     7
 10
-83.070007
 20
214.29999
 11
-83.070007
 21
211.29999
  0
LINE
  8
0
  6
CONTINUOUS
 62
     7
 10
-80.070007
 20
214.29999
 11
-80.070007
 21
211.41057
  0
LINE
  8
0
  6
CONTINUOUS
 62
     7
 10
-79.070007
 20
214.29999
 11
-79.070007
 21
211.29999
  0
LINE
  8
0
  6
CONTINUOUS
 62
     7
 10
-76.070007
 20
214.29999
 11
-76.070007
 21
211.29999
  0
LINE
  8
0
  6
CONTINUOUS
 62
     7
 10
-75.070007
 20
214.29999
 11
-75.070007
 21
211.29999
  0
LINE
  8
0
  6
CONTINUOUS
 62
     7
 10
-72.070007
 20
214.29999
 11
-72.070007
 21
211.29999
  0
LINE
  8
0
  6
CONTINUOUS
 62
     7
 10
-71.070007
 20
214.29999
 11
-71.070007
 21
211.29999
  0
LINE
  8
0
  6
CONTINUOUS
 62
     7
 10
-68.070007
 20
214.29999
 11
-68.070007
 21
211.29999
  0
LINE
  8
0
  6
CONTINUOUS
 62
     7
 10
-67.070007
 20
214.29999
 11
-67.070007
 21
211.29999
  0
LINE
  8
0
  6
CONTINUOUS
 62
     7
 10
-64.070007
 20
214.29999
 11
-64.070007
 21
211.29999
  0
LINE
  8
0
  6
CONTINUOUS
 62
     7
 10
-91.070007
 20
214.29999
 11
-91.070007
 21
211.29999
  0
LINE
  8
0
  6
CONTINUOUS
 62
     7
 10
-92.070007
 20
214.29999
 11
-92.070007
 21
211.29999
  0
LINE
  8
0
  6
CONTINUOUS
 62
     7
 10
-95.070007
 20
214.29999
 11
-95.070007
 21
211.29999
  0
LINE
  8
0
  6
CONTINUOUS
 62
     7
 10
-96.070007
 20
214.29999
 11
-96.070007
 21
211.29999
  0
LINE
  8
0
  6
CONTINUOUS
 62
     7
 10
-99.070007
 20
214.29999
 11
-99.070007
 21
211.29999
  0
LINE
  8
0
  6
CONTINUOUS
 62
     7
 10
-100.07001
 20
214.29999
 11
-100.07001
 21
211.29999
  0
LINE
  8
0
  6
CONTINUOUS
 62
     7
 10
-103.07001
 20
214.29999
 11
-103.07001
 21
211.29999
  0
LINE
  8
0
  6
CONTINUOUS
 62
     7
 10
-104.07001
 20
214.29999
 11
-104.07001
 21
211.29999
  0
LINE
  8
0
  6
CONTINUOUS
 62
     7
 10
-107.07001
 20
214.29999
 11
-107.07001
 21
211.29999
  0
LINE
  8
0
  6
CONTINUOUS
 62
     7
 10
-108.07001
 20
214.29999
 11
-108.07001
 21
211.29999
  0
LINE
  8
0
  6
CONTINUOUS
 62
     7
 10
-111.07001
 20
214.29999
 11
-111.07001
 21
211.29999
  0
LINE
  8
0
  6
CONTINUOUS
 62
     7
 10
-111.07001
 20
211.29999
 11
-108.07001
 21
211.29999
  0
LINE
  8
0
  6
CONTINUOUS
 62
     7
 10
-111.07001
 20
214.29999
 11
-108.07001
 21
214.29999
  0
LINE
  8
0
  6
CONTINUOUS
 62
     7
 10
-107.07001
 20
214.29999
 11
-104.07001
 21
214.29999
  0
LINE
  8
0
  6
CONTINUOUS
 62
     7
 10
-103.07001
 20
214.29999
 11
-100.07001
 21
214.29999
  0
LINE
  8
0
  6
CONTINUOUS
 62
     7
 10
-99.070007
 20
214.29999
 11
-96.070007
 21
214.29999
  0
LINE
  8
0
  6
CONTINUOUS
 62
     7
 10
-95.070007
 20
214.29999
 11
-92.070007
 21
214.29999
  0
LINE
  8
0
  6
CONTINUOUS
 62
     7
 10
-91.070007
 20
214.29999
 11
-88.070007
 21
214.29999
  0
LINE
  8
0
  6
CONTINUOUS
 62
     7
 10
-87.070007
 20
214.29999
 11
-84.070007
 21
214.29999
  0
LINE
  8
0
  6
CONTINUOUS
 62
     7
 10
-83.070007
 20
214.29999
 11
-80.070007
 21
214.29999
  0
LINE
  8
0
  6
CONTINUOUS
 62
     7
 10
-79.070007
 20
214.29999
 11
-76.070007
 21
214.29999
  0
LINE
  8
0
  6
CONTINUOUS
 62
     7
 10
-75.070007
 20
214.29999
 11
-72.070007
 21
214.29999
  0
LINE
  8
0
  6
CONTINUOUS
 62
     7
 10
-71.070007
 20
214.29999
 11
-68.070007
 21
214.29999
  0
LINE
  8
0
  6
CONTINUOUS
 62
     7
 10
-67.070007
 20
214.29999
 11
-64.070007
 21
214.29999
  0
LINE
  8
0
  6
CONTINUOUS
 62
     7
 10
-67.070007
 20
211.29999
 11
-64.070007
 21
211.29999
  0
LINE
  8
0
  6
CONTINUOUS
 62
     7
 10
-71.070007
 20
211.29999
 11
-68.070007
 21
211.29999
  0
LINE
  8
0
  6
CONTINUOUS
 62
     7
 10
-75.070007
 20
211.29999
 11
-72.070007
 21
211.29999
  0
LINE
  8
0
  6
CONTINUOUS
 62
     7
 10
-79.070007
 20
211.29999
 11
-76.070007
 21
211.29999
  0
LINE
  8
0
  6
CONTINUOUS
 62
     7
 10
-83.070007
 20
211.29999
 11
-80.070007
 21
211.29999
  0
LINE
  8
0
  6
CONTINUOUS
 62
     7
 10
-87.070007
 20
211.29999
 11
-84.070007
 21
211.29999
  0
LINE
  8
0
  6
CONTINUOUS
 62
     7
 10
-91.070007
 20
211.29999
 11
-88.070007
 21
211.29999
  0
LINE
  8
0
  6
CONTINUOUS
 62
     7
 10
-95.070007
 20
211.29999
 11
-92.070007
 21
211.29999
  0
LINE
  8
0
  6
CONTINUOUS
 62
     7
 10
-99.070007
 20
211.29999
 11
-96.070007
 21
211.29999
  0
LINE
  8
0
  6
CONTINUOUS
 62
     7
 10
-103.07001
 20
211.29999
 11
-100.07001
 21
211.29999
  0
LINE
  8
0
  6
CONTINUOUS
 62
     7
 10
-107.07001
 20
211.29999
 11
-104.07001
 21
211.29999
  0
LINE
  8
0
  6
CONTINUOUS
 62
     7
 10
-88.070007
 20
210.29999
 11
-88.070007
 21
207.29999
  0
LINE
  8
0
  6
CONTINUOUS
 62
     7
 10
-87.070007
 20
210.29999
 11
-87.070007
 21
207.29999
  0
LINE
  8
0
  6
CONTINUOUS
 62
     7
 10
-84.070007
 20
210.29999
 11
-84.070007
 21
207.29999
  0
LINE
  8
0
  6
CONTINUOUS
 62
     7
 10
-83.070007
 20
210.29999
 11
-83.070007
 21
207.29999
  0
LINE
  8
0
  6
CONTINUOUS
 62
     7
 10
-80.070007
 20
210.29999
 11
-80.070007
 21
207.41057
  0
LINE
  8
0
  6
CONTINUOUS
 62
     7
 10
-79.070007
 20
210.29999
 11
-79.070007
 21
207.29999
  0
LINE
  8
0
  6
CONTINUOUS
 62
     7
 10
-76.070007
 20
210.29999
 11
-76.070007
 21
207.29999
  0
LINE
  8
0
  6
CONTINUOUS
 62
     7
 10
-75.070007
 20
210.29999
 11
-75.070007
 21
207.29999
  0
LINE
  8
0
  6
CONTINUOUS
 62
     7
 10
-72.070007
 20
210.29999
 11
-72.070007
 21
207.29999
  0
LINE
  8
0
  6
CONTINUOUS
 62
     7
 10
-71.070007
 20
210.29999
 11
-71.070007
 21
207.29999
  0
LINE
  8
0
  6
CONTINUOUS
 62
     7
 10
-68.070007
 20
210.29999
 11
-68.070007
 21
207.29999
  0
LINE
  8
0
  6
CONTINUOUS
 62
     7
 10
-67.070007
 20
210.29999
 11
-67.070007
 21
207.29999
  0
LINE
  8
0
  6
CONTINUOUS
 62
     7
 10
-64.070007
 20
210.29999
 11
-64.070007
 21
207.29999
  0
LINE
  8
0
  6
CONTINUOUS
 62
     7
 10
-91.070007
 20
210.29999
 11
-91.070007
 21
207.29999
  0
LINE
  8
0
  6
CONTINUOUS
 62
     7
 10
-92.070007
 20
210.29999
 11
-92.070007
 21
207.29999
  0
LINE
  8
0
  6
CONTINUOUS
 62
     7
 10
-95.070007
 20
210.29999
 11
-95.070007
 21
207.29999
  0
LINE
  8
0
  6
CONTINUOUS
 62
     7
 10
-96.070007
 20
210.29999
 11
-96.070007
 21
207.29999
  0
LINE
  8
0
  6
CONTINUOUS
 62
     7
 10
-99.070007
 20
210.29999
 11
-99.070007
 21
207.29999
  0
LINE
  8
0
  6
CONTINUOUS
 62
     7
 10
-100.07001
 20
210.29999
 11
-100.07001
 21
207.29999
  0
LINE
  8
0
  6
CONTINUOUS
 62
     7
 10
-103.07001
 20
210.29999
 11
-103.07001
 21
207.29999
  0
LINE
  8
0
  6
CONTINUOUS
 62
     7
 10
-104.07001
 20
210.29999
 11
-104.07001
 21
207.29999
  0
LINE
  8
0
  6
CONTINUOUS
 62
     7
 10
-107.07001
 20
210.29999
 11
-107.07001
 21
207.29999
  0
LINE
  8
0
  6
CONTINUOUS
 62
     7
 10
-108.07001
 20
210.29999
 11
-108.07001
 21
207.29999
  0
LINE
  8
0
  6
CONTINUOUS
 62
     7
 10
-111.07001
 20
210.29999
 11
-111.07001
 21
207.29999
  0
LINE
  8
0
  6
CONTINUOUS
 62
     7
 10
-111.07001
 20
207.29999
 11
-108.07001
 21
207.29999
  0
LINE
  8
0
  6
CONTINUOUS
 62
     7
 10
-111.07001
 20
210.29999
 11
-108.07001
 21
210.29999
  0
LINE
  8
0
  6
CONTINUOUS
 62
     7
 10
-107.07001
 20
210.29999
 11
-104.07001
 21
210.29999
  0
LINE
  8
0
  6
CONTINUOUS
 62
     7
 10
-103.07001
 20
210.29999
 11
-100.07001
 21
210.29999
  0
LINE
  8
0
  6
CONTINUOUS
 62
     7
 10
-99.070007
 20
210.29999
 11
-96.070007
 21
210.29999
  0
LINE
  8
0
  6
CONTINUOUS
 62
     7
 10
-95.070007
 20
210.29999
 11
-92.070007
 21
210.29999
  0
LINE
  8
0
  6
CONTINUOUS
 62
     7
 10
-91.070007
 20
210.29999
 11
-88.070007
 21
210.29999
  0
LINE
  8
0
  6
CONTINUOUS
 62
     7
 10
-87.070007
 20
210.29999
 11
-84.070007
 21
210.29999
  0
LINE
  8
0
  6
CONTINUOUS
 62
     7
 10
-83.070007
 20
210.29999
 11
-80.070007
 21
210.29999
  0
LINE
  8
0
  6
CONTINUOUS
 62
     7
 10
-79.070007
 20
210.29999
 11
-76.070007
 21
210.29999
  0
LINE
  8
0
  6
CONTINUOUS
 62
     7
 10
-75.070007
 20
210.29999
 11
-72.070007
 21
210.29999
  0
LINE
  8
0
  6
CONTINUOUS
 62
     7
 10
-71.070007
 20
210.29999
 11
-68.070007
 21
210.29999
  0
LINE
  8
0
  6
CONTINUOUS
 62
     7
 10
-67.070007
 20
210.29999
 11
-64.070007
 21
210.29999
  0
LINE
  8
0
  6
CONTINUOUS
 62
     7
 10
-67.070007
 20
207.29999
 11
-64.070007
 21
207.29999
  0
LINE
  8
0
  6
CONTINUOUS
 62
     7
 10
-71.070007
 20
207.29999
 11
-68.070007
 21
207.29999
  0
LINE
  8
0
  6
CONTINUOUS
 62
     7
 10
-75.070007
 20
207.29999
 11
-72.070007
 21
207.29999
  0
LINE
  8
0
  6
CONTINUOUS
 62
     7
 10
-79.070007
 20
207.29999
 11
-76.070007
 21
207.29999
  0
LINE
  8
0
  6
CONTINUOUS
 62
     7
 10
-83.070007
 20
207.29999
 11
-80.070007
 21
207.29999
  0
LINE
  8
0
  6
CONTINUOUS
 62
     7
 10
-87.070007
 20
207.29999
 11
-84.070007
 21
207.29999
  0
LINE
  8
0
  6
CONTINUOUS
 62
     7
 10
-91.070007
 20
207.29999
 11
-88.070007
 21
207.29999
  0
LINE
  8
0
  6
CONTINUOUS
 62
     7
 10
-95.070007
 20
207.29999
 11
-92.070007
 21
207.29999
  0
LINE
  8
0
  6
CONTINUOUS
 62
     7
 10
-99.070007
 20
207.29999
 11
-96.070007
 21
207.29999
  0
LINE
  8
0
  6
CONTINUOUS
 62
     7
 10
-103.07001
 20
207.29999
 11
-100.07001
 21
207.29999
  0
LINE
  8
0
  6
CONTINUOUS
 62
     7
 10
-107.07001
 20
207.29999
 11
-104.07001
 21
207.29999
  0
LINE
  8
0
  6
CONTINUOUS
 62
     7
 10
-88.070007
 20
206.29999
 11
-88.070007
 21
203.29999
  0
LINE
  8
0
  6
CONTINUOUS
 62
     7
 10
-87.070007
 20
206.29999
 11
-87.070007
 21
203.29999
  0
LINE
  8
0
  6
CONTINUOUS
 62
     7
 10
-84.070007
 20
206.29999
 11
-84.070007
 21
203.29999
  0
LINE
  8
0
  6
CONTINUOUS
 62
     7
 10
-83.070007
 20
206.29999
 11
-83.070007
 21
203.29999
  0
LINE
  8
0
  6
CONTINUOUS
 62
     7
 10
-80.070007
 20
206.29999
 11
-80.070007
 21
203.41057
  0
LINE
  8
0
  6
CONTINUOUS
 62
     7
 10
-79.070007
 20
206.29999
 11
-79.070007
 21
203.29999
  0
LINE
  8
0
  6
CONTINUOUS
 62
     7
 10
-76.070007
 20
206.29999
 11
-76.070007
 21
203.29999
  0
LINE
  8
0
  6
CONTINUOUS
 62
     7
 10
-75.070007
 20
206.29999
 11
-75.070007
 21
203.29999
  0
LINE
  8
0
  6
CONTINUOUS
 62
     7
 10
-72.070007
 20
206.29999
 11
-72.070007
 21
203.29999
  0
LINE
  8
0
  6
CONTINUOUS
 62
     7
 10
-71.070007
 20
206.29999
 11
-71.070007
 21
203.29999
  0
LINE
  8
0
  6
CONTINUOUS
 62
     7
 10
-68.070007
 20
206.29999
 11
-68.070007
 21
203.29999
  0
LINE
  8
0
  6
CONTINUOUS
 62
     7
 10
-67.070007
 20
206.29999
 11
-67.070007
 21
203.29999
  0
LINE
  8
0
  6
CONTINUOUS
 62
     7
 10
-64.070007
 20
206.29999
 11
-64.070007
 21
203.29999
  0
LINE
  8
0
  6
CONTINUOUS
 62
     7
 10
-91.070007
 20
206.29999
 11
-91.070007
 21
203.29999
  0
LINE
  8
0
  6
CONTINUOUS
 62
     7
 10
-92.070007
 20
206.29999
 11
-92.070007
 21
203.29999
  0
LINE
  8
0
  6
CONTINUOUS
 62
     7
 10
-95.070007
 20
206.29999
 11
-95.070007
 21
203.29999
  0
LINE
  8
0
  6
CONTINUOUS
 62
     7
 10
-96.070007
 20
206.29999
 11
-96.070007
 21
203.29999
  0
LINE
  8
0
  6
CONTINUOUS
 62
     7
 10
-99.070007
 20
206.29999
 11
-99.070007
 21
203.29999
  0
LINE
  8
0
  6
CONTINUOUS
 62
     7
 10
-100.07001
 20
206.29999
 11
-100.07001
 21
203.29999
  0
LINE
  8
0
  6
CONTINUOUS
 62
     7
 10
-103.07001
 20
206.29999
 11
-103.07001
 21
203.29999
  0
LINE
  8
0
  6
CONTINUOUS
 62
     7
 10
-104.07001
 20
206.29999
 11
-104.07001
 21
203.29999
  0
LINE
  8
0
  6
CONTINUOUS
 62
     7
 10
-107.07001
 20
206.29999
 11
-107.07001
 21
203.29999
  0
LINE
  8
0
  6
CONTINUOUS
 62
     7
 10
-108.07001
 20
206.29999
 11
-108.07001
 21
203.29999
  0
LINE
  8
0
  6
CONTINUOUS
 62
     7
 10
-111.07001
 20
206.29999
 11
-111.07001
 21
203.29999
  0
LINE
  8
0
  6
CONTINUOUS
 62
     7
 10
-111.07001
 20
203.29999
 11
-108.07001
 21
203.29999
  0
LINE
  8
0
  6
CONTINUOUS
 62
     7
 10
-111.07001
 20
206.29999
 11
-108.07001
 21
206.29999
  0
LINE
  8
0
  6
CONTINUOUS
 62
     7
 10
-107.07001
 20
206.29999
 11
-104.07001
 21
206.29999
  0
LINE
  8
0
  6
CONTINUOUS
 62
     7
 10
-103.07001
 20
206.29999
 11
-100.07001
 21
206.29999
  0
LINE
  8
0
  6
CONTINUOUS
 62
     7
 10
-99.070007
 20
206.29999
 11
-96.070007
 21
206.29999
  0
LINE
  8
0
  6
CONTINUOUS
 62
     7
 10
-95.070007
 20
206.29999
 11
-92.070007
 21
206.29999
  0
LINE
  8
0
  6
CONTINUOUS
 62
     7
 10
-91.070007
 20
206.29999
 11
-88.070007
 21
206.29999
  0
LINE
  8
0
  6
CONTINUOUS
 62
     7
 10
-87.070007
 20
206.29999
 11
-84.070007
 21
206.29999
  0
LINE
  8
0
  6
CONTINUOUS
 62
     7
 10
-83.070007
 20
206.29999
 11
-80.070007
 21
206.29999
  0
LINE
  8
0
  6
CONTINUOUS
 62
     7
 10
-79.070007
 20
206.29999
 11
-76.070007
 21
206.29999
  0
LINE
  8
0
  6
CONTINUOUS
 62
     7
 10
-75.070007
 20
206.29999
 11
-72.070007
 21
206.29999
  0
LINE
  8
0
  6
CONTINUOUS
 62
     7
 10
-71.070007
 20
206.29999
 11
-68.070007
 21
206.29999
  0
LINE
  8
0
  6
CONTINUOUS
 62
     7
 10
-67.070007
 20
206.29999
 11
-64.070007
 21
206.29999
  0
LINE
  8
0
  6
CONTINUOUS
 62
     7
 10
-67.070007
 20
203.29999
 11
-64.070007
 21
203.29999
  0
LINE
  8
0
  6
CONTINUOUS
 62
     7
 10
-71.070007
 20
203.29999
 11
-68.070007
 21
203.29999
  0
LINE
  8
0
  6
CONTINUOUS
 62
     7
 10
-75.070007
 20
203.29999
 11
-72.070007
 21
203.29999
  0
LINE
  8
0
  6
CONTINUOUS
 62
     7
 10
-79.070007
 20
203.29999
 11
-76.070007
 21
203.29999
  0
LINE
  8
0
  6
CONTINUOUS
 62
     7
 10
-83.070007
 20
203.29999
 11
-80.070007
 21
203.29999
  0
LINE
  8
0
  6
CONTINUOUS
 62
     7
 10
-87.070007
 20
203.29999
 11
-84.070007
 21
203.29999
  0
LINE
  8
0
  6
CONTINUOUS
 62
     7
 10
-91.070007
 20
203.29999
 11
-88.070007
 21
203.29999
  0
LINE
  8
0
  6
CONTINUOUS
 62
     7
 10
-95.070007
 20
203.29999
 11
-92.070007
 21
203.29999
  0
LINE
  8
0
  6
CONTINUOUS
 62
     7
 10
-99.070007
 20
203.29999
 11
-96.070007
 21
203.29999
  0
LINE
  8
0
  6
CONTINUOUS
 62
     7
 10
-103.07001
 20
203.29999
 11
-100.07001
 21
203.29999
  0
LINE
  8
0
  6
CONTINUOUS
 62
     7
 10
-107.07001
 20
203.29999
 11
-104.07001
 21
203.29999
  0
LINE
  8
0
  6
CONTINUOUS
 62
     7
 10
-88.070007
 20
202.29999
 11
-88.070007
 21
199.29999
  0
LINE
  8
0
  6
CONTINUOUS
 62
     7
 10
-87.070007
 20
202.29999
 11
-87.070007
 21
199.29999
  0
LINE
  8
0
  6
CONTINUOUS
 62
     7
 10
-84.070007
 20
202.29999
 11
-84.070007
 21
199.29999
  0
LINE
  8
0
  6
CONTINUOUS
 62
     7
 10
-83.070007
 20
202.29999
 11
-83.070007
 21
199.29999
  0
LINE
  8
0
  6
CONTINUOUS
 62
     7
 10
-80.070007
 20
202.29999
 11
-80.070007
 21
199.41057
  0
LINE
  8
0
  6
CONTINUOUS
 62
     7
 10
-79.070007
 20
202.29999
 11
-79.070007
 21
199.29999
  0
LINE
  8
0
  6
CONTINUOUS
 62
     7
 10
-76.070007
 20
202.29999
 11
-76.070007
 21
199.29999
  0
LINE
  8
0
  6
CONTINUOUS
 62
     7
 10
-75.070007
 20
202.29999
 11
-75.070007
 21
199.29999
  0
LINE
  8
0
  6
CONTINUOUS
 62
     7
 10
-72.070007
 20
202.29999
 11
-72.070007
 21
199.29999
  0
LINE
  8
0
  6
CONTINUOUS
 62
     7
 10
-71.070007
 20
202.29999
 11
-71.070007
 21
199.29999
  0
LINE
  8
0
  6
CONTINUOUS
 62
     7
 10
-68.070007
 20
202.29999
 11
-68.070007
 21
199.29999
  0
LINE
  8
0
  6
CONTINUOUS
 62
     7
 10
-67.070007
 20
202.29999
 11
-67.070007
 21
199.29999
  0
LINE
  8
0
  6
CONTINUOUS
 62
     7
 10
-64.070007
 20
202.29999
 11
-64.070007
 21
199.29999
  0
LINE
  8
0
  6
CONTINUOUS
 62
     7
 10
-91.070007
 20
202.29999
 11
-91.070007
 21
199.29999
  0
LINE
  8
0
  6
CONTINUOUS
 62
     7
 10
-92.070007
 20
202.29999
 11
-92.070007
 21
199.29999
  0
LINE
  8
0
  6
CONTINUOUS
 62
     7
 10
-95.070007
 20
202.29999
 11
-95.070007
 21
199.29999
  0
LINE
  8
0
  6
CONTINUOUS
 62
     7
 10
-96.070007
 20
202.29999
 11
-96.070007
 21
199.29999
  0
LINE
  8
0
  6
CONTINUOUS
 62
     7
 10
-99.070007
 20
202.29999
 11
-99.070007
 21
199.29999
  0
LINE
  8
0
  6
CONTINUOUS
 62
     7
 10
-100.07001
 20
202.29999
 11
-100.07001
 21
199.29999
  0
LINE
  8
0
  6
CONTINUOUS
 62
     7
 10
-103.07001
 20
202.29999
 11
-103.07001
 21
199.29999
  0
LINE
  8
0
  6
CONTINUOUS
 62
     7
 10
-104.07001
 20
202.29999
 11
-104.07001
 21
199.29999
  0
LINE
  8
0
  6
CONTINUOUS
 62
     7
 10
-107.07001
 20
202.29999
 11
-107.07001
 21
199.29999
  0
LINE
  8
0
  6
CONTINUOUS
 62
     7
 10
-108.07001
 20
202.29999
 11
-108.07001
 21
199.29999
  0
LINE
  8
0
  6
CONTINUOUS
 62
     7
 10
-111.07001
 20
202.29999
 11
-111.07001
 21
199.29999
  0
LINE
  8
0
  6
CONTINUOUS
 62
     7
 10
-111.07001
 20
199.29999
 11
-108.07001
 21
199.29999
  0
LINE
  8
0
  6
CONTINUOUS
 62
     7
 10
-111.07001
 20
202.29999
 11
-108.07001
 21
202.29999
  0
LINE
  8
0
  6
CONTINUOUS
 62
     7
 10
-107.07001
 20
202.29999
 11
-104.07001
 21
202.29999
  0
LINE
  8
0
  6
CONTINUOUS
 62
     7
 10
-103.07001
 20
202.29999
 11
-100.07001
 21
202.29999
  0
LINE
  8
0
  6
CONTINUOUS
 62
     7
 10
-99.070007
 20
202.29999
 11
-96.070007
 21
202.29999
  0
LINE
  8
0
  6
CONTINUOUS
 62
     7
 10
-95.070007
 20
202.29999
 11
-92.070007
 21
202.29999
  0
LINE
  8
0
  6
CONTINUOUS
 62
     7
 10
-91.070007
 20
202.29999
 11
-88.070007
 21
202.29999
  0
LINE
  8
0
  6
CONTINUOUS
 62
     7
 10
-87.070007
 20
202.29999
 11
-84.070007
 21
202.29999
  0
LINE
  8
0
  6
CONTINUOUS
 62
     7
 10
-83.070007
 20
202.29999
 11
-80.070007
 21
202.29999
  0
LINE
  8
0
  6
CONTINUOUS
 62
     7
 10
-79.070007
 20
202.29999
 11
-76.070007
 21
202.29999
  0
LINE
  8
0
  6
CONTINUOUS
 62
     7
 10
-75.070007
 20
202.29999
 11
-72.070007
 21
202.29999
  0
LINE
  8
0
  6
CONTINUOUS
 62
     7
 10
-71.070007
 20
202.29999
 11
-68.070007
 21
202.29999
  0
LINE
  8
0
  6
CONTINUOUS
 62
     7
 10
-67.070007
 20
202.29999
 11
-64.070007
 21
202.29999
  0
LINE
  8
0
  6
CONTINUOUS
 62
     7
 10
-67.070007
 20
199.29999
 11
-64.070007
 21
199.29999
  0
LINE
  8
0
  6
CONTINUOUS
 62
     7
 10
-71.070007
 20
199.29999
 11
-68.070007
 21
199.29999
  0
LINE
  8
0
  6
CONTINUOUS
 62
     7
 10
-75.070007
 20
199.29999
 11
-72.070007
 21
199.29999
  0
LINE
  8
0
  6
CONTINUOUS
 62
     7
 10
-79.070007
 20
199.29999
 11
-76.070007
 21
199.29999
  0
LINE
  8
0
  6
CONTINUOUS
 62
     7
 10
-83.070007
 20
199.29999
 11
-80.070007
 21
199.29999
  0
LINE
  8
0
  6
CONTINUOUS
 62
     7
 10
-87.070007
 20
199.29999
 11
-84.070007
 21
199.29999
  0
LINE
  8
0
  6
CONTINUOUS
 62
     7
 10
-91.070007
 20
199.29999
 11
-88.070007
 21
199.29999
  0
LINE
  8
0
  6
CONTINUOUS
 62
     7
 10
-95.070007
 20
199.29999
 11
-92.070007
 21
199.29999
  0
LINE
  8
0
  6
CONTINUOUS
 62
     7
 10
-99.070007
 20
199.29999
 11
-96.070007
 21
199.29999
  0
LINE
  8
0
  6
CONTINUOUS
 62
     7
 10
-103.07001
 20
199.29999
 11
-100.07001
 21
199.29999
  0
LINE
  8
0
  6
CONTINUOUS
 62
     7
 10
-107.07001
 20
199.29999
 11
-104.07001
 21
199.29999
  0
LINE
  8
0
  6
CONTINUOUS
 62
     7
 10
-88.070007
 20
198.29999
 11
-88.070007
 21
195.29999
  0
LINE
  8
0
  6
CONTINUOUS
 62
     7
 10
-87.070007
 20
198.29999
 11
-87.070007
 21
195.29999
  0
LINE
  8
0
  6
CONTINUOUS
 62
     7
 10
-84.070007
 20
198.29999
 11
-84.070007
 21
195.29999
  0
LINE
  8
0
  6
CONTINUOUS
 62
     7
 10
-83.070007
 20
198.29999
 11
-83.070007
 21
195.29999
  0
LINE
  8
0
  6
CONTINUOUS
 62
     7
 10
-80.070007
 20
198.29999
 11
-80.070007
 21
195.41057
  0
LINE
  8
0
  6
CONTINUOUS
 62
     7
 10
-79.070007
 20
198.29999
 11
-79.070007
 21
195.29999
  0
LINE
  8
0
  6
CONTINUOUS
 62
     7
 10
-76.070007
 20
198.29999
 11
-76.070007
 21
195.29999
  0
LINE
  8
0
  6
CONTINUOUS
 62
     7
 10
-75.070007
 20
198.29999
 11
-75.070007
 21
195.29999
  0
LINE
  8
0
  6
CONTINUOUS
 62
     7
 10
-72.070007
 20
198.29999
 11
-72.070007
 21
195.29999
  0
LINE
  8
0
  6
CONTINUOUS
 62
     7
 10
-71.070007
 20
198.29999
 11
-71.070007
 21
195.29999
  0
LINE
  8
0
  6
CONTINUOUS
 62
     7
 10
-68.070007
 20
198.29999
 11
-68.070007
 21
195.29999
  0
LINE
  8
0
  6
CONTINUOUS
 62
     7
 10
-67.070007
 20
198.29999
 11
-67.070007
 21
195.29999
  0
LINE
  8
0
  6
CONTINUOUS
 62
     7
 10
-64.070007
 20
198.29999
 11
-64.070007
 21
195.29999
  0
LINE
  8
0
  6
CONTINUOUS
 62
     7
 10
-91.070007
 20
198.29999
 11
-91.070007
 21
195.29999
  0
LINE
  8
0
  6
CONTINUOUS
 62
     7
 10
-92.070007
 20
198.29999
 11
-92.070007
 21
195.29999
  0
LINE
  8
0
  6
CONTINUOUS
 62
     7
 10
-95.070007
 20
198.29999
 11
-95.070007
 21
195.29999
  0
LINE
  8
0
  6
CONTINUOUS
 62
     7
 10
-96.070007
 20
198.29999
 11
-96.070007
 21
195.29999
  0
LINE
  8
0
  6
CONTINUOUS
 62
     7
 10
-99.070007
 20
198.29999
 11
-99.070007
 21
195.29999
  0
LINE
  8
0
  6
CONTINUOUS
 62
     7
 10
-100.07001
 20
198.29999
 11
-100.07001
 21
195.29999
  0
LINE
  8
0
  6
CONTINUOUS
 62
     7
 10
-103.07001
 20
198.29999
 11
-103.07001
 21
195.29999
  0
LINE
  8
0
  6
CONTINUOUS
 62
     7
 10
-104.07001
 20
198.29999
 11
-104.07001
 21
195.29999
  0
LINE
  8
0
  6
CONTINUOUS
 62
     7
 10
-107.07001
 20
198.29999
 11
-107.07001
 21
195.29999
  0
LINE
  8
0
  6
CONTINUOUS
 62
     7
 10
-108.07001
 20
198.29999
 11
-108.07001
 21
195.29999
  0
LINE
  8
0
  6
CONTINUOUS
 62
     7
 10
-111.07001
 20
198.29999
 11
-111.07001
 21
195.29999
  0
LINE
  8
0
  6
CONTINUOUS
 62
     7
 10
-111.07001
 20
195.29999
 11
-108.07001
 21
195.29999
  0
LINE
  8
0
  6
CONTINUOUS
 62
     7
 10
-111.07001
 20
198.29999
 11
-108.07001
 21
198.29999
  0
LINE
  8
0
  6
CONTINUOUS
 62
     7
 10
-107.07001
 20
198.29999
 11
-104.07001
 21
198.29999
  0
LINE
  8
0
  6
CONTINUOUS
 62
     7
 10
-103.07001
 20
198.29999
 11
-100.07001
 21
198.29999
  0
LINE
  8
0
  6
CONTINUOUS
 62
     7
 10
-99.070007
 20
198.29999
 11
-96.070007
 21
198.29999
  0
LINE
  8
0
  6
CONTINUOUS
 62
     7
 10
-95.070007
 20
198.29999
 11
-92.070007
 21
198.29999
  0
LINE
  8
0
  6
CONTINUOUS
 62
     7
 10
-91.070007
 20
198.29999
 11
-88.070007
 21
198.29999
  0
LINE
  8
0
  6
CONTINUOUS
 62
     7
 10
-87.070007
 20
198.29999
 11
-84.070007
 21
198.29999
  0
LINE
  8
0
  6
CONTINUOUS
 62
     7
 10
-83.070007
 20
198.29999
 11
-80.070007
 21
198.29999
  0
LINE
  8
0
  6
CONTINUOUS
 62
     7
 10
-79.070007
 20
198.29999
 11
-76.070007
 21
198.29999
  0
LINE
  8
0
  6
CONTINUOUS
 62
     7
 10
-75.070007
 20
198.29999
 11
-72.070007
 21
198.29999
  0
LINE
  8
0
  6
CONTINUOUS
 62
     7
 10
-71.070007
 20
198.29999
 11
-68.070007
 21
198.29999
  0
LINE
  8
0
  6
CONTINUOUS
 62
     7
 10
-67.070007
 20
198.29999
 11
-64.070007
 21
198.29999
  0
LINE
  8
0
  6
CONTINUOUS
 62
     7
 10
-67.070007
 20
195.29999
 11
-64.070007
 21
195.29999
  0
LINE
  8
0
  6
CONTINUOUS
 62
     7
 10
-71.070007
 20
195.29999
 11
-68.070007
 21
195.29999
  0
LINE
  8
0
  6
CONTINUOUS
 62
     7
 10
-75.070007
 20
195.29999
 11
-72.070007
 21
195.29999
  0
LINE
  8
0
  6
CONTINUOUS
 62
     7
 10
-79.070007
 20
195.29999
 11
-76.070007
 21
195.29999
  0
LINE
  8
0
  6
CONTINUOUS
 62
     7
 10
-83.070007
 20
195.29999
 11
-80.070007
 21
195.29999
  0
LINE
  8
0
  6
CONTINUOUS
 62
     7
 10
-87.070007
 20
195.29999
 11
-84.070007
 21
195.29999
  0
LINE
  8
0
  6
CONTINUOUS
 62
     7
 10
-91.070007
 20
195.29999
 11
-88.070007
 21
195.29999
  0
LINE
  8
0
  6
CONTINUOUS
 62
     7
 10
-95.070007
 20
195.29999
 11
-92.070007
 21
195.29999
  0
LINE
  8
0
  6
CONTINUOUS
 62
     7
 10
-99.070007
 20
195.29999
 11
-96.070007
 21
195.29999
  0
LINE
  8
0
  6
CONTINUOUS
 62
     7
 10
-103.07001
 20
195.29999
 11
-100.07001
 21
195.29999
  0
LINE
  8
0
  6
CONTINUOUS
 62
     7
 10
-107.07001
 20
195.29999
 11
-104.07001
 21
195.29999
  0
LINE
  8
0
  6
CONTINUOUS
 62
     7
 10
-88.070007
 20
194.29999
 11
-88.070007
 21
191.29999
  0
LINE
  8
0
  6
CONTINUOUS
 62
     7
 10
-87.070007
 20
194.29999
 11
-87.070007
 21
191.29999
  0
LINE
  8
0
  6
CONTINUOUS
 62
     7
 10
-84.070007
 20
194.29999
 11
-84.070007
 21
191.29999
  0
LINE
  8
0
  6
CONTINUOUS
 62
     7
 10
-83.070007
 20
194.29999
 11
-83.070007
 21
191.29999
  0
LINE
  8
0
  6
CONTINUOUS
 62
     7
 10
-80.070007
 20
194.29999
 11
-80.070007
 21
191.41057
  0
LINE
  8
0
  6
CONTINUOUS
 62
     7
 10
-79.070007
 20
194.29999
 11
-79.070007
 21
191.29999
  0
LINE
  8
0
  6
CONTINUOUS
 62
     7
 10
-76.070007
 20
194.29999
 11
-76.070007
 21
191.29999
  0
LINE
  8
0
  6
CONTINUOUS
 62
     7
 10
-75.070007
 20
194.29999
 11
-75.070007
 21
191.29999
  0
LINE
  8
0
  6
CONTINUOUS
 62
     7
 10
-72.070007
 20
194.29999
 11
-72.070007
 21
191.29999
  0
LINE
  8
0
  6
CONTINUOUS
 62
     7
 10
-71.070007
 20
194.29999
 11
-71.070007
 21
191.29999
  0
LINE
  8
0
  6
CONTINUOUS
 62
     7
 10
-68.070007
 20
194.29999
 11
-68.070007
 21
191.29999
  0
LINE
  8
0
  6
CONTINUOUS
 62
     7
 10
-67.070007
 20
194.29999
 11
-67.070007
 21
191.29999
  0
LINE
  8
0
  6
CONTINUOUS
 62
     7
 10
-64.070007
 20
194.29999
 11
-64.070007
 21
191.29999
  0
LINE
  8
0
  6
CONTINUOUS
 62
     7
 10
-91.070007
 20
194.29999
 11
-91.070007
 21
191.29999
  0
LINE
  8
0
  6
CONTINUOUS
 62
     7
 10
-92.070007
 20
194.29999
 11
-92.070007
 21
191.29999
  0
LINE
  8
0
  6
CONTINUOUS
 62
     7
 10
-95.070007
 20
194.29999
 11
-95.070007
 21
191.29999
  0
LINE
  8
0
  6
CONTINUOUS
 62
     7
 10
-96.070007
 20
194.29999
 11
-96.070007
 21
191.29999
  0
LINE
  8
0
  6
CONTINUOUS
 62
     7
 10
-99.070007
 20
194.29999
 11
-99.070007
 21
191.29999
  0
LINE
  8
0
  6
CONTINUOUS
 62
     7
 10
-100.07001
 20
194.29999
 11
-100.07001
 21
191.29999
  0
LINE
  8
0
  6
CONTINUOUS
 62
     7
 10
-103.07001
 20
194.29999
 11
-103.07001
 21
191.29999
  0
LINE
  8
0
  6
CONTINUOUS
 62
     7
 10
-104.07001
 20
194.29999
 11
-104.07001
 21
191.29999
  0
LINE
  8
0
  6
CONTINUOUS
 62
     7
 10
-107.07001
 20
194.29999
 11
-107.07001
 21
191.29999
  0
LINE
  8
0
  6
CONTINUOUS
 62
     7
 10
-108.07001
 20
194.29999
 11
-108.07001
 21
191.29999
  0
LINE
  8
0
  6
CONTINUOUS
 62
     7
 10
-111.07001
 20
194.29999
 11
-111.07001
 21
191.29999
  0
LINE
  8
0
  6
CONTINUOUS
 62
     7
 10
-111.07001
 20
191.29999
 11
-108.07001
 21
191.29999
  0
LINE
  8
0
  6
CONTINUOUS
 62
     7
 10
-111.07001
 20
194.29999
 11
-108.07001
 21
194.29999
  0
LINE
  8
0
  6
CONTINUOUS
 62
     7
 10
-107.07001
 20
194.29999
 11
-104.07001
 21
194.29999
  0
LINE
  8
0
  6
CONTINUOUS
 62
     7
 10
-103.07001
 20
194.29999
 11
-100.07001
 21
194.29999
  0
LINE
  8
0
  6
CONTINUOUS
 62
     7
 10
-99.070007
 20
194.29999
 11
-96.070007
 21
194.29999
  0
LINE
  8
0
  6
CONTINUOUS
 62
     7
 10
-95.070007
 20
194.29999
 11
-92.070007
 21
194.29999
  0
LINE
  8
0
  6
CONTINUOUS
 62
     7
 10
-91.070007
 20
194.29999
 11
-88.070007
 21
194.29999
  0
LINE
  8
0
  6
CONTINUOUS
 62
     7
 10
-87.070007
 20
194.29999
 11
-84.070007
 21
194.29999
  0
LINE
  8
0
  6
CONTINUOUS
 62
     7
 10
-83.070007
 20
194.29999
 11
-80.070007
 21
194.29999
  0
LINE
  8
0
  6
CONTINUOUS
 62
     7
 10
-79.070007
 20
194.29999
 11
-76.070007
 21
194.29999
  0
LINE
  8
0
  6
CONTINUOUS
 62
     7
 10
-75.070007
 20
194.29999
 11
-72.070007
 21
194.29999
  0
LINE
  8
0
  6
CONTINUOUS
 62
     7
 10
-71.070007
 20
194.29999
 11
-68.070007
 21
194.29999
  0
LINE
  8
0
  6
CONTINUOUS
 62
     7
 10
-67.070007
 20
194.29999
 11
-64.070007
 21
194.29999
  0
LINE
  8
0
  6
CONTINUOUS
 62
     7
 10
-67.070007
 20
191.29999
 11
-64.070007
 21
191.29999
  0
LINE
  8
0
  6
CONTINUOUS
 62
     7
 10
-71.070007
 20
191.29999
 11
-68.070007
 21
191.29999
  0
LINE
  8
0
  6
CONTINUOUS
 62
     7
 10
-75.070007
 20
191.29999
 11
-72.070007
 21
191.29999
  0
LINE
  8
0
  6
CONTINUOUS
 62
     7
 10
-79.070007
 20
191.29999
 11
-76.070007
 21
191.29999
  0
LINE
  8
0
  6
CONTINUOUS
 62
     7
 10
-83.070007
 20
191.29999
 11
-80.070007
 21
191.29999
  0
LINE
  8
0
  6
CONTINUOUS
 62
     7
 10
-87.070007
 20
191.29999
 11
-84.070007
 21
191.29999
  0
LINE
  8
0
  6
CONTINUOUS
 62
     7
 10
-91.070007
 20
191.29999
 11
-88.070007
 21
191.29999
  0
LINE
  8
0
  6
CONTINUOUS
 62
     7
 10
-95.070007
 20
191.29999
 11
-92.070007
 21
191.29999
  0
LINE
  8
0
  6
CONTINUOUS
 62
     7
 10
-99.070007
 20
191.29999
 11
-96.070007
 21
191.29999
  0
LINE
  8
0
  6
CONTINUOUS
 62
     7
 10
-103.07001
 20
191.29999
 11
-100.07001
 21
191.29999
  0
LINE
  8
0
  6
CONTINUOUS
 62
     7
 10
-107.07001
 20
191.29999
 11
-104.07001
 21
191.29999
  0
LINE
  8
0
  6
CONTINUOUS
 62
     7
 10
-88.070007
 20
190.29999
 11
-88.070007
 21
187.29999
  0
LINE
  8
0
  6
CONTINUOUS
 62
     7
 10
-87.070007
 20
190.29999
 11
-87.070007
 21
187.29999
  0
LINE
  8
0
  6
CONTINUOUS
 62
     7
 10
-84.070007
 20
190.29999
 11
-84.070007
 21
187.29999
  0
LINE
  8
0
  6
CONTINUOUS
 62
     7
 10
-83.070007
 20
190.29999
 11
-83.070007
 21
187.29999
  0
LINE
  8
0
  6
CONTINUOUS
 62
     7
 10
-80.070007
 20
190.29999
 11
-80.070007
 21
187.41057
  0
LINE
  8
0
  6
CONTINUOUS
 62
     7
 10
-79.070007
 20
190.29999
 11
-79.070007
 21
187.29999
  0
LINE
  8
0
  6
CONTINUOUS
 62
     7
 10
-76.070007
 20
190.29999
 11
-76.070007
 21
187.29999
  0
LINE
  8
0
  6
CONTINUOUS
 62
     7
 10
-75.070007
 20
190.29999
 11
-75.070007
 21
187.29999
  0
LINE
  8
0
  6
CONTINUOUS
 62
     7
 10
-72.070007
 20
190.29999
 11
-72.070007
 21
187.29999
  0
LINE
  8
0
  6
CONTINUOUS
 62
     7
 10
-71.070007
 20
190.29999
 11
-71.070007
 21
187.29999
  0
LINE
  8
0
  6
CONTINUOUS
 62
     7
 10
-68.070007
 20
190.29999
 11
-68.070007
 21
187.29999
  0
LINE
  8
0
  6
CONTINUOUS
 62
     7
 10
-67.070007
 20
190.29999
 11
-67.070007
 21
187.29999
  0
LINE
  8
0
  6
CONTINUOUS
 62
     7
 10
-64.070007
 20
190.29999
 11
-64.070007
 21
187.29999
  0
LINE
  8
0
  6
CONTINUOUS
 62
     7
 10
-91.070007
 20
190.29999
 11
-91.070007
 21
187.29999
  0
LINE
  8
0
  6
CONTINUOUS
 62
     7
 10
-92.070007
 20
190.29999
 11
-92.070007
 21
187.29999
  0
LINE
  8
0
  6
CONTINUOUS
 62
     7
 10
-95.070007
 20
190.29999
 11
-95.070007
 21
187.29999
  0
LINE
  8
0
  6
CONTINUOUS
 62
     7
 10
-96.070007
 20
190.29999
 11
-96.070007
 21
187.29999
  0
LINE
  8
0
  6
CONTINUOUS
 62
     7
 10
-99.070007
 20
190.29999
 11
-99.070007
 21
187.29999
  0
LINE
  8
0
  6
CONTINUOUS
 62
     7
 10
-100.07001
 20
190.29999
 11
-100.07001
 21
187.29999
  0
LINE
  8
0
  6
CONTINUOUS
 62
     7
 10
-103.07001
 20
190.29999
 11
-103.07001
 21
187.29999
  0
LINE
  8
0
  6
CONTINUOUS
 62
     7
 10
-104.07001
 20
190.29999
 11
-104.07001
 21
187.29999
  0
LINE
  8
0
  6
CONTINUOUS
 62
     7
 10
-107.07001
 20
190.29999
 11
-107.07001
 21
187.29999
  0
LINE
  8
0
  6
CONTINUOUS
 62
     7
 10
-108.07001
 20
190.29999
 11
-108.07001
 21
187.29999
  0
LINE
  8
0
  6
CONTINUOUS
 62
     7
 10
-111.07001
 20
190.29999
 11
-111.07001
 21
187.29999
  0
LINE
  8
0
  6
CONTINUOUS
 62
     7
 10
-111.07001
 20
187.29999
 11
-108.07001
 21
187.29999
  0
LINE
  8
0
  6
CONTINUOUS
 62
     7
 10
-111.07001
 20
190.29999
 11
-108.07001
 21
190.29999
  0
LINE
  8
0
  6
CONTINUOUS
 62
     7
 10
-107.07001
 20
190.29999
 11
-104.07001
 21
190.29999
  0
LINE
  8
0
  6
CONTINUOUS
 62
     7
 10
-103.07001
 20
190.29999
 11
-100.07001
 21
190.29999
  0
LINE
  8
0
  6
CONTINUOUS
 62
     7
 10
-99.070007
 20
190.29999
 11
-96.070007
 21
190.29999
  0
LINE
  8
0
  6
CONTINUOUS
 62
     7
 10
-95.070007
 20
190.29999
 11
-92.070007
 21
190.29999
  0
LINE
  8
0
  6
CONTINUOUS
 62
     7
 10
-91.070007
 20
190.29999
 11
-88.070007
 21
190.29999
  0
LINE
  8
0
  6
CONTINUOUS
 62
     7
 10
-87.070007
 20
190.29999
 11
-84.070007
 21
190.29999
  0
LINE
  8
0
  6
CONTINUOUS
 62
     7
 10
-83.070007
 20
190.29999
 11
-80.070007
 21
190.29999
  0
LINE
  8
0
  6
CONTINUOUS
 62
     7
 10
-79.070007
 20
190.29999
 11
-76.070007
 21
190.29999
  0
LINE
  8
0
  6
CONTINUOUS
 62
     7
 10
-75.070007
 20
190.29999
 11
-72.070007
 21
190.29999
  0
LINE
  8
0
  6
CONTINUOUS
 62
     7
 10
-71.070007
 20
190.29999
 11
-68.070007
 21
190.29999
  0
LINE
  8
0
  6
CONTINUOUS
 62
     7
 10
-67.070007
 20
190.29999
 11
-64.070007
 21
190.29999
  0
LINE
  8
0
  6
CONTINUOUS
 62
     7
 10
-67.070007
 20
187.29999
 11
-64.070007
 21
187.29999
  0
LINE
  8
0
  6
CONTINUOUS
 62
     7
 10
-71.070007
 20
187.29999
 11
-68.070007
 21
187.29999
  0
LINE
  8
0
  6
CONTINUOUS
 62
     7
 10
-75.070007
 20
187.29999
 11
-72.070007
 21
187.29999
  0
LINE
  8
0
  6
CONTINUOUS
 62
     7
 10
-79.070007
 20
187.29999
 11
-76.070007
 21
187.29999
  0
LINE
  8
0
  6
CONTINUOUS
 62
     7
 10
-83.070007
 20
187.29999
 11
-80.070007
 21
187.29999
  0
LINE
  8
0
  6
CONTINUOUS
 62
     7
 10
-87.070007
 20
187.29999
 11
-84.070007
 21
187.29999
  0
LINE
  8
0
  6
CONTINUOUS
 62
     7
 10
-91.070007
 20
187.29999
 11
-88.070007
 21
187.29999
  0
LINE
  8
0
  6
CONTINUOUS
 62
     7
 10
-95.070007
 20
187.29999
 11
-92.070007
 21
187.29999
  0
LINE
  8
0
  6
CONTINUOUS
 62
     7
 10
-99.070007
 20
187.29999
 11
-96.070007
 21
187.29999
  0
LINE
  8
0
  6
CONTINUOUS
 62
     7
 10
-103.07001
 20
187.29999
 11
-100.07001
 21
187.29999
  0
LINE
  8
0
  6
CONTINUOUS
 62
     7
 10
-107.07001
 20
187.29999
 11
-104.07001
 21
187.29999
  0
LINE
  8
0
  6
CONTINUOUS
 62
     7
 10
-88.070007
 20
186.29999
 11
-88.070007
 21
183.29999
  0
LINE
  8
0
  6
CONTINUOUS
 62
     7
 10
-87.070007
 20
186.29999
 11
-87.070007
 21
183.29999
  0
LINE
  8
0
  6
CONTINUOUS
 62
     7
 10
-84.070007
 20
186.29999
 11
-84.070007
 21
183.29999
  0
LINE
  8
0
  6
CONTINUOUS
 62
     7
 10
-83.070007
 20
186.29999
 11
-83.070007
 21
183.29999
  0
LINE
  8
0
  6
CONTINUOUS
 62
     7
 10
-80.070007
 20
186.29999
 11
-80.070007
 21
183.41057
  0
LINE
  8
0
  6
CONTINUOUS
 62
     7
 10
-79.070007
 20
186.29999
 11
-79.070007
 21
183.29999
  0
LINE
  8
0
  6
CONTINUOUS
 62
     7
 10
-76.070007
 20
186.29999
 11
-76.070007
 21
183.29999
  0
LINE
  8
0
  6
CONTINUOUS
 62
     7
 10
-75.070007
 20
186.29999
 11
-75.070007
 21
183.29999
  0
LINE
  8
0
  6
CONTINUOUS
 62
     7
 10
-72.070007
 20
186.29999
 11
-72.070007
 21
183.29999
  0
LINE
  8
0
  6
CONTINUOUS
 62
     7
 10
-71.070007
 20
186.29999
 11
-71.070007
 21
183.29999
  0
LINE
  8
0
  6
CONTINUOUS
 62
     7
 10
-68.070007
 20
186.29999
 11
-68.070007
 21
183.29999
  0
LINE
  8
0
  6
CONTINUOUS
 62
     7
 10
-67.070007
 20
186.29999
 11
-67.070007
 21
183.29999
  0
LINE
  8
0
  6
CONTINUOUS
 62
     7
 10
-64.070007
 20
186.29999
 11
-64.070007
 21
183.29999
  0
LINE
  8
0
  6
CONTINUOUS
 62
     7
 10
-91.070007
 20
186.29999
 11
-91.070007
 21
183.29999
  0
LINE
  8
0
  6
CONTINUOUS
 62
     7
 10
-92.070007
 20
186.29999
 11
-92.070007
 21
183.29999
  0
LINE
  8
0
  6
CONTINUOUS
 62
     7
 10
-95.070007
 20
186.29999
 11
-95.070007
 21
183.29999
  0
LINE
  8
0
  6
CONTINUOUS
 62
     7
 10
-96.070007
 20
186.29999
 11
-96.070007
 21
183.29999
  0
LINE
  8
0
  6
CONTINUOUS
 62
     7
 10
-99.070007
 20
186.29999
 11
-99.070007
 21
183.29999
  0
LINE
  8
0
  6
CONTINUOUS
 62
     7
 10
-100.07001
 20
186.29999
 11
-100.07001
 21
183.29999
  0
LINE
  8
0
  6
CONTINUOUS
 62
     7
 10
-103.07001
 20
186.29999
 11
-103.07001
 21
183.29999
  0
LINE
  8
0
  6
CONTINUOUS
 62
     7
 10
-104.07001
 20
186.29999
 11
-104.07001
 21
183.29999
  0
LINE
  8
0
  6
CONTINUOUS
 62
     7
 10
-107.07001
 20
186.29999
 11
-107.07001
 21
183.29999
  0
LINE
  8
0
  6
CONTINUOUS
 62
     7
 10
-108.07001
 20
186.29999
 11
-108.07001
 21
183.29999
  0
LINE
  8
0
  6
CONTINUOUS
 62
     7
 10
-111.07001
 20
186.29999
 11
-111.07001
 21
183.29999
  0
LINE
  8
0
  6
CONTINUOUS
 62
     7
 10
-111.07001
 20
183.29999
 11
-108.07001
 21
183.29999
  0
LINE
  8
0
  6
CONTINUOUS
 62
     7
 10
-111.07001
 20
186.29999
 11
-108.07001
 21
186.29999
  0
LINE
  8
0
  6
CONTINUOUS
 62
     7
 10
-107.07001
 20
186.29999
 11
-104.07001
 21
186.29999
  0
LINE
  8
0
  6
CONTINUOUS
 62
     7
 10
-103.07001
 20
186.29999
 11
-100.07001
 21
186.29999
  0
LINE
  8
0
  6
CONTINUOUS
 62
     7
 10
-99.070007
 20
186.29999
 11
-96.070007
 21
186.29999
  0
LINE
  8
0
  6
CONTINUOUS
 62
     7
 10
-95.070007
 20
186.29999
 11
-92.070007
 21
186.29999
  0
LINE
  8
0
  6
CONTINUOUS
 62
     7
 10
-91.070007
 20
186.29999
 11
-88.070007
 21
186.29999
  0
LINE
  8
0
  6
CONTINUOUS
 62
     7
 10
-87.070007
 20
186.29999
 11
-84.070007
 21
186.29999
  0
LINE
  8
0
  6
CONTINUOUS
 62
     7
 10
-83.070007
 20
186.29999
 11
-80.070007
 21
186.29999
  0
LINE
  8
0
  6
CONTINUOUS
 62
     7
 10
-79.070007
 20
186.29999
 11
-76.070007
 21
186.29999
  0
LINE
  8
0
  6
CONTINUOUS
 62
     7
 10
-75.070007
 20
186.29999
 11
-72.070007
 21
186.29999
  0
LINE
  8
0
  6
CONTINUOUS
 62
     7
 10
-71.070007
 20
186.29999
 11
-68.070007
 21
186.29999
  0
LINE
  8
0
  6
CONTINUOUS
 62
     7
 10
-67.070007
 20
186.29999
 11
-64.070007
 21
186.29999
  0
LINE
  8
0
  6
CONTINUOUS
 62
     7
 10
-67.070007
 20
183.29999
 11
-64.070007
 21
183.29999
  0
LINE
  8
0
  6
CONTINUOUS
 62
     7
 10
-71.070007
 20
183.29999
 11
-68.070007
 21
183.29999
  0
LINE
  8
0
  6
CONTINUOUS
 62
     7
 10
-75.070007
 20
183.29999
 11
-72.070007
 21
183.29999
  0
LINE
  8
0
  6
CONTINUOUS
 62
     7
 10
-79.070007
 20
183.29999
 11
-76.070007
 21
183.29999
  0
LINE
  8
0
  6
CONTINUOUS
 62
     7
 10
-83.070007
 20
183.29999
 11
-80.070007
 21
183.29999
  0
LINE
  8
0
  6
CONTINUOUS
 62
     7
 10
-87.070007
 20
183.29999
 11
-84.070007
 21
183.29999
  0
LINE
  8
0
  6
CONTINUOUS
 62
     7
 10
-91.070007
 20
183.29999
 11
-88.070007
 21
183.29999
  0
LINE
  8
0
  6
CONTINUOUS
 62
     7
 10
-95.070007
 20
183.29999
 11
-92.070007
 21
183.29999
  0
LINE
  8
0
  6
CONTINUOUS
 62
     7
 10
-99.070007
 20
183.29999
 11
-96.070007
 21
183.29999
  0
LINE
  8
0
  6
CONTINUOUS
 62
     7
 10
-103.07001
 20
183.29999
 11
-100.07001
 21
183.29999
  0
LINE
  8
0
  6
CONTINUOUS
 62
     7
 10
-107.07001
 20
183.29999
 11
-104.07001
 21
183.29999
  0
LINE
  8
0
  6
CONTINUOUS
 62
     7
 10
-88.070007
 20
182.29999
 11
-88.070007
 21
179.29999
  0
LINE
  8
0
  6
CONTINUOUS
 62
     7
 10
-87.070007
 20
182.29999
 11
-87.070007
 21
179.29999
  0
LINE
  8
0
  6
CONTINUOUS
 62
     7
 10
-84.070007
 20
182.29999
 11
-84.070007
 21
179.29999
  0
LINE
  8
0
  6
CONTINUOUS
 62
     7
 10
-83.070007
 20
182.29999
 11
-83.070007
 21
179.29999
  0
LINE
  8
0
  6
CONTINUOUS
 62
     7
 10
-80.070007
 20
182.29999
 11
-80.070007
 21
179.41057
  0
LINE
  8
0
  6
CONTINUOUS
 62
     7
 10
-79.070007
 20
182.29999
 11
-79.070007
 21
179.29999
  0
LINE
  8
0
  6
CONTINUOUS
 62
     7
 10
-76.070007
 20
182.29999
 11
-76.070007
 21
179.29999
  0
LINE
  8
0
  6
CONTINUOUS
 62
     7
 10
-75.070007
 20
182.29999
 11
-75.070007
 21
179.29999
  0
LINE
  8
0
  6
CONTINUOUS
 62
     7
 10
-72.070007
 20
182.29999
 11
-72.070007
 21
179.29999
  0
LINE
  8
0
  6
CONTINUOUS
 62
     7
 10
-71.070007
 20
182.29999
 11
-71.070007
 21
179.29999
  0
LINE
  8
0
  6
CONTINUOUS
 62
     7
 10
-68.070007
 20
182.29999
 11
-68.070007
 21
179.29999
  0
LINE
  8
0
  6
CONTINUOUS
 62
     7
 10
-67.070007
 20
182.29999
 11
-67.070007
 21
179.29999
  0
LINE
  8
0
  6
CONTINUOUS
 62
     7
 10
-64.070007
 20
182.29999
 11
-64.070007
 21
179.29999
  0
LINE
  8
0
  6
CONTINUOUS
 62
     7
 10
-91.070007
 20
182.29999
 11
-91.070007
 21
179.29999
  0
LINE
  8
0
  6
CONTINUOUS
 62
     7
 10
-92.070007
 20
182.29999
 11
-92.070007
 21
179.29999
  0
LINE
  8
0
  6
CONTINUOUS
 62
     7
 10
-95.070007
 20
182.29999
 11
-95.070007
 21
179.29999
  0
LINE
  8
0
  6
CONTINUOUS
 62
     7
 10
-96.070007
 20
182.29999
 11
-96.070007
 21
179.29999
  0
LINE
  8
0
  6
CONTINUOUS
 62
     7
 10
-99.070007
 20
182.29999
 11
-99.070007
 21
179.29999
  0
LINE
  8
0
  6
CONTINUOUS
 62
     7
 10
-100.07001
 20
182.29999
 11
-100.07001
 21
179.29999
  0
LINE
  8
0
  6
CONTINUOUS
 62
     7
 10
-103.07001
 20
182.29999
 11
-103.07001
 21
179.29999
  0
LINE
  8
0
  6
CONTINUOUS
 62
     7
 10
-104.07001
 20
182.29999
 11
-104.07001
 21
179.29999
  0
LINE
  8
0
  6
CONTINUOUS
 62
     7
 10
-107.07001
 20
182.29999
 11
-107.07001
 21
179.29999
  0
LINE
  8
0
  6
CONTINUOUS
 62
     7
 10
-108.07001
 20
182.29999
 11
-108.07001
 21
179.29999
  0
LINE
  8
0
  6
CONTINUOUS
 62
     7
 10
-111.07001
 20
182.29999
 11
-111.07001
 21
179.29999
  0
LINE
  8
0
  6
CONTINUOUS
 62
     7
 10
-111.07001
 20
179.29999
 11
-108.07001
 21
179.29999
  0
LINE
  8
0
  6
CONTINUOUS
 62
     7
 10
-111.07001
 20
182.29999
 11
-108.07001
 21
182.29999
  0
LINE
  8
0
  6
CONTINUOUS
 62
     7
 10
-107.07001
 20
182.29999
 11
-104.07001
 21
182.29999
  0
LINE
  8
0
  6
CONTINUOUS
 62
     7
 10
-103.07001
 20
182.29999
 11
-100.07001
 21
182.29999
  0
LINE
  8
0
  6
CONTINUOUS
 62
     7
 10
-99.070007
 20
182.29999
 11
-96.070007
 21
182.29999
  0
LINE
  8
0
  6
CONTINUOUS
 62
     7
 10
-95.070007
 20
182.29999
 11
-92.070007
 21
182.29999
  0
LINE
  8
0
  6
CONTINUOUS
 62
     7
 10
-91.070007
 20
182.29999
 11
-88.070007
 21
182.29999
  0
LINE
  8
0
  6
CONTINUOUS
 62
     7
 10
-87.070007
 20
182.29999
 11
-84.070007
 21
182.29999
  0
LINE
  8
0
  6
CONTINUOUS
 62
     7
 10
-83.070007
 20
182.29999
 11
-80.070007
 21
182.29999
  0
LINE
  8
0
  6
CONTINUOUS
 62
     7
 10
-79.070007
 20
182.29999
 11
-76.070007
 21
182.29999
  0
LINE
  8
0
  6
CONTINUOUS
 62
     7
 10
-75.070007
 20
182.29999
 11
-72.070007
 21
182.29999
  0
LINE
  8
0
  6
CONTINUOUS
 62
     7
 10
-71.070007
 20
182.29999
 11
-68.070007
 21
182.29999
  0
LINE
  8
0
  6
CONTINUOUS
 62
     7
 10
-67.070007
 20
182.29999
 11
-64.070007
 21
182.29999
  0
LINE
  8
0
  6
CONTINUOUS
 62
     7
 10
-67.070007
 20
179.29999
 11
-64.070007
 21
179.29999
  0
LINE
  8
0
  6
CONTINUOUS
 62
     7
 10
-71.070007
 20
179.29999
 11
-68.070007
 21
179.29999
  0
LINE
  8
0
  6
CONTINUOUS
 62
     7
 10
-75.070007
 20
179.29999
 11
-72.070007
 21
179.29999
  0
LINE
  8
0
  6
CONTINUOUS
 62
     7
 10
-79.070007
 20
179.29999
 11
-76.070007
 21
179.29999
  0
LINE
  8
0
  6
CONTINUOUS
 62
     7
 10
-83.070007
 20
179.29999
 11
-80.070007
 21
179.29999
  0
LINE
  8
0
  6
CONTINUOUS
 62
     7
 10
-87.070007
 20
179.29999
 11
-84.070007
 21
179.29999
  0
LINE
  8
0
  6
CONTINUOUS
 62
     7
 10
-91.070007
 20
179.29999
 11
-88.070007
 21
179.29999
  0
LINE
  8
0
  6
CONTINUOUS
 62
     7
 10
-95.070007
 20
179.29999
 11
-92.070007
 21
179.29999
  0
LINE
  8
0
  6
CONTINUOUS
 62
     7
 10
-99.070007
 20
179.29999
 11
-96.070007
 21
179.29999
  0
LINE
  8
0
  6
CONTINUOUS
 62
     7
 10
-103.07001
 20
179.29999
 11
-100.07001
 21
179.29999
  0
LINE
  8
0
  6
CONTINUOUS
 62
     7
 10
-107.07001
 20
179.29999
 11
-104.07001
 21
179.29999
  0
LINE
  8
0
  6
CONTINUOUS
 62
     7
 10
-88.070007
 20
178.29999
 11
-88.070007
 21
175.29999
  0
LINE
  8
0
  6
CONTINUOUS
 62
     7
 10
-87.070007
 20
178.29999
 11
-87.070007
 21
175.29999
  0
LINE
  8
0
  6
CONTINUOUS
 62
     7
 10
-84.070007
 20
178.29999
 11
-84.070007
 21
175.29999
  0
LINE
  8
0
  6
CONTINUOUS
 62
     7
 10
-83.070007
 20
178.29999
 11
-83.070007
 21
175.29999
  0
LINE
  8
0
  6
CONTINUOUS
 62
     7
 10
-80.070007
 20
178.29999
 11
-80.070007
 21
175.41057
  0
LINE
  8
0
  6
CONTINUOUS
 62
     7
 10
-79.070007
 20
178.29999
 11
-79.070007
 21
175.29999
  0
LINE
  8
0
  6
CONTINUOUS
 62
     7
 10
-76.070007
 20
178.29999
 11
-76.070007
 21
175.29999
  0
LINE
  8
0
  6
CONTINUOUS
 62
     7
 10
-75.070007
 20
178.29999
 11
-75.070007
 21
175.29999
  0
LINE
  8
0
  6
CONTINUOUS
 62
     7
 10
-72.070007
 20
178.29999
 11
-72.070007
 21
175.29999
  0
LINE
  8
0
  6
CONTINUOUS
 62
     7
 10
-71.070007
 20
178.29999
 11
-71.070007
 21
175.29999
  0
LINE
  8
0
  6
CONTINUOUS
 62
     7
 10
-68.070007
 20
178.29999
 11
-68.070007
 21
175.29999
  0
LINE
  8
0
  6
CONTINUOUS
 62
     7
 10
-67.070007
 20
178.29999
 11
-67.070007
 21
175.29999
  0
LINE
  8
0
  6
CONTINUOUS
 62
     7
 10
-64.070007
 20
178.29999
 11
-64.070007
 21
175.29999
  0
LINE
  8
0
  6
CONTINUOUS
 62
     7
 10
-91.070007
 20
178.29999
 11
-91.070007
 21
175.29999
  0
LINE
  8
0
  6
CONTINUOUS
 62
     7
 10
-92.070007
 20
178.29999
 11
-92.070007
 21
175.29999
  0
LINE
  8
0
  6
CONTINUOUS
 62
     7
 10
-95.070007
 20
178.29999
 11
-95.070007
 21
175.29999
  0
LINE
  8
0
  6
CONTINUOUS
 62
     7
 10
-96.070007
 20
178.29999
 11
-96.070007
 21
175.29999
  0
LINE
  8
0
  6
CONTINUOUS
 62
     7
 10
-99.070007
 20
178.29999
 11
-99.070007
 21
175.29999
  0
LINE
  8
0
  6
CONTINUOUS
 62
     7
 10
-100.07001
 20
178.29999
 11
-100.07001
 21
175.29999
  0
LINE
  8
0
  6
CONTINUOUS
 62
     7
 10
-103.07001
 20
178.29999
 11
-103.07001
 21
175.29999
  0
LINE
  8
0
  6
CONTINUOUS
 62
     7
 10
-104.07001
 20
178.29999
 11
-104.07001
 21
175.29999
  0
LINE
  8
0
  6
CONTINUOUS
 62
     7
 10
-107.07001
 20
178.29999
 11
-107.07001
 21
175.29999
  0
LINE
  8
0
  6
CONTINUOUS
 62
     7
 10
-108.07001
 20
178.29999
 11
-108.07001
 21
175.29999
  0
LINE
  8
0
  6
CONTINUOUS
 62
     7
 10
-111.07001
 20
178.29999
 11
-111.07001
 21
175.29999
  0
LINE
  8
0
  6
CONTINUOUS
 62
     7
 10
-111.07001
 20
175.29999
 11
-108.07001
 21
175.29999
  0
LINE
  8
0
  6
CONTINUOUS
 62
     7
 10
-111.07001
 20
178.29999
 11
-108.07001
 21
178.29999
  0
LINE
  8
0
  6
CONTINUOUS
 62
     7
 10
-107.07001
 20
178.29999
 11
-104.07001
 21
178.29999
  0
LINE
  8
0
  6
CONTINUOUS
 62
     7
 10
-103.07001
 20
178.29999
 11
-100.07001
 21
178.29999
  0
LINE
  8
0
  6
CONTINUOUS
 62
     7
 10
-99.070007
 20
178.29999
 11
-96.070007
 21
178.29999
  0
LINE
  8
0
  6
CONTINUOUS
 62
     7
 10
-95.070007
 20
178.29999
 11
-92.070007
 21
178.29999
  0
LINE
  8
0
  6
CONTINUOUS
 62
     7
 10
-91.070007
 20
178.29999
 11
-88.070007
 21
178.29999
  0
LINE
  8
0
  6
CONTINUOUS
 62
     7
 10
-87.070007
 20
178.29999
 11
-84.070007
 21
178.29999
  0
LINE
  8
0
  6
CONTINUOUS
 62
     7
 10
-83.070007
 20
178.29999
 11
-80.070007
 21
178.29999
  0
LINE
  8
0
  6
CONTINUOUS
 62
     7
 10
-79.070007
 20
178.29999
 11
-76.070007
 21
178.29999
  0
LINE
  8
0
  6
CONTINUOUS
 62
     7
 10
-75.070007
 20
178.29999
 11
-72.070007
 21
178.29999
  0
LINE
  8
0
  6
CONTINUOUS
 62
     7
 10
-71.070007
 20
178.29999
 11
-68.070007
 21
178.29999
  0
LINE
  8
0
  6
CONTINUOUS
 62
     7
 10
-67.070007
 20
178.29999
 11
-64.070007
 21
178.29999
  0
LINE
  8
0
  6
CONTINUOUS
 62
     7
 10
-67.070007
 20
175.29999
 11
-64.070007
 21
175.29999
  0
LINE
  8
0
  6
CONTINUOUS
 62
     7
 10
-71.070007
 20
175.29999
 11
-68.070007
 21
175.29999
  0
LINE
  8
0
  6
CONTINUOUS
 62
     7
 10
-75.070007
 20
175.29999
 11
-72.070007
 21
175.29999
  0
LINE
  8
0
  6
CONTINUOUS
 62
     7
 10
-79.070007
 20
175.29999
 11
-76.070007
 21
175.29999
  0
LINE
  8
0
  6
CONTINUOUS
 62
     7
 10
-83.070007
 20
175.29999
 11
-80.070007
 21
175.29999
  0
LINE
  8
0
  6
CONTINUOUS
 62
     7
 10
-87.070007
 20
175.29999
 11
-84.070007
 21
175.29999
  0
LINE
  8
0
  6
CONTINUOUS
 62
     7
 10
-91.070007
 20
175.29999
 11
-88.070007
 21
175.29999
  0
LINE
  8
0
  6
CONTINUOUS
 62
     7
 10
-95.070007
 20
175.29999
 11
-92.070007
 21
175.29999
  0
LINE
  8
0
  6
CONTINUOUS
 62
     7
 10
-99.070007
 20
175.29999
 11
-96.070007
 21
175.29999
  0
LINE
  8
0
  6
CONTINUOUS
 62
     7
 10
-103.07001
 20
175.29999
 11
-100.07001
 21
175.29999
  0
LINE
  8
0
  6
CONTINUOUS
 62
     7
 10
-107.07001
 20
175.29999
 11
-104.07001
 21
175.29999
  0
LINE
  8
0
  6
CONTINUOUS
 62
     7
 10
-88.070007
 20
174.29999
 11
-88.070007
 21
171.29999
  0
LINE
  8
0
  6
CONTINUOUS
 62
     7
 10
-87.070007
 20
174.29999
 11
-87.070007
 21
171.29999
  0
LINE
  8
0
  6
CONTINUOUS
 62
     7
 10
-84.070007
 20
174.29999
 11
-84.070007
 21
171.29999
  0
LINE
  8
0
  6
CONTINUOUS
 62
     7
 10
-83.070007
 20
174.29999
 11
-83.070007
 21
171.29999
  0
LINE
  8
0
  6
CONTINUOUS
 62
     7
 10
-80.070007
 20
174.29999
 11
-80.070007
 21
171.41057
  0
LINE
  8
0
  6
CONTINUOUS
 62
     7
 10
-79.070007
 20
174.29999
 11
-79.070007
 21
171.29999
  0
LINE
  8
0
  6
CONTINUOUS
 62
     7
 10
-76.070007
 20
174.29999
 11
-76.070007
 21
171.29999
  0
LINE
  8
0
  6
CONTINUOUS
 62
     7
 10
-75.070007
 20
174.29999
 11
-75.070007
 21
171.29999
  0
LINE
  8
0
  6
CONTINUOUS
 62
     7
 10
-72.070007
 20
174.29999
 11
-72.070007
 21
171.29999
  0
LINE
  8
0
  6
CONTINUOUS
 62
     7
 10
-71.070007
 20
174.29999
 11
-71.070007
 21
171.29999
  0
LINE
  8
0
  6
CONTINUOUS
 62
     7
 10
-68.070007
 20
174.29999
 11
-68.070007
 21
171.29999
  0
LINE
  8
0
  6
CONTINUOUS
 62
     7
 10
-67.070007
 20
174.29999
 11
-67.070007
 21
171.29999
  0
LINE
  8
0
  6
CONTINUOUS
 62
     7
 10
-64.070007
 20
174.29999
 11
-64.070007
 21
171.29999
  0
LINE
  8
0
  6
CONTINUOUS
 62
     7
 10
-91.070007
 20
174.29999
 11
-91.070007
 21
171.29999
  0
LINE
  8
0
  6
CONTINUOUS
 62
     7
 10
-92.070007
 20
174.29999
 11
-92.070007
 21
171.29999
  0
LINE
  8
0
  6
CONTINUOUS
 62
     7
 10
-95.070007
 20
174.29999
 11
-95.070007
 21
171.29999
  0
LINE
  8
0
  6
CONTINUOUS
 62
     7
 10
-96.070007
 20
174.29999
 11
-96.070007
 21
171.29999
  0
LINE
  8
0
  6
CONTINUOUS
 62
     7
 10
-99.070007
 20
174.29999
 11
-99.070007
 21
171.29999
  0
LINE
  8
0
  6
CONTINUOUS
 62
     7
 10
-100.07001
 20
174.29999
 11
-100.07001
 21
171.29999
  0
LINE
  8
0
  6
CONTINUOUS
 62
     7
 10
-103.07001
 20
174.29999
 11
-103.07001
 21
171.29999
  0
LINE
  8
0
  6
CONTINUOUS
 62
     7
 10
-104.07001
 20
174.29999
 11
-104.07001
 21
171.29999
  0
LINE
  8
0
  6
CONTINUOUS
 62
     7
 10
-107.07001
 20
174.29999
 11
-107.07001
 21
171.29999
  0
LINE
  8
0
  6
CONTINUOUS
 62
     7
 10
-108.07001
 20
174.29999
 11
-108.07001
 21
171.29999
  0
LINE
  8
0
  6
CONTINUOUS
 62
     7
 10
-111.07001
 20
174.29999
 11
-111.07001
 21
171.29999
  0
LINE
  8
0
  6
CONTINUOUS
 62
     7
 10
-111.07001
 20
171.29999
 11
-108.07001
 21
171.29999
  0
LINE
  8
0
  6
CONTINUOUS
 62
     7
 10
-111.07001
 20
174.29999
 11
-108.07001
 21
174.29999
  0
LINE
  8
0
  6
CONTINUOUS
 62
     7
 10
-107.07001
 20
174.29999
 11
-104.07001
 21
174.29999
  0
LINE
  8
0
  6
CONTINUOUS
 62
     7
 10
-103.07001
 20
174.29999
 11
-100.07001
 21
174.29999
  0
LINE
  8
0
  6
CONTINUOUS
 62
     7
 10
-99.070007
 20
174.29999
 11
-96.070007
 21
174.29999
  0
LINE
  8
0
  6
CONTINUOUS
 62
     7
 10
-95.070007
 20
174.29999
 11
-92.070007
 21
174.29999
  0
LINE
  8
0
  6
CONTINUOUS
 62
     7
 10
-91.070007
 20
174.29999
 11
-88.070007
 21
174.29999
  0
LINE
  8
0
  6
CONTINUOUS
 62
     7
 10
-87.070007
 20
174.29999
 11
-84.070007
 21
174.29999
  0
LINE
  8
0
  6
CONTINUOUS
 62
     7
 10
-83.070007
 20
174.29999
 11
-80.070007
 21
174.29999
  0
LINE
  8
0
  6
CONTINUOUS
 62
     7
 10
-79.070007
 20
174.29999
 11
-76.070007
 21
174.29999
  0
LINE
  8
0
  6
CONTINUOUS
 62
     7
 10
-75.070007
 20
174.29999
 11
-72.070007
 21
174.29999
  0
LINE
  8
0
  6
CONTINUOUS
 62
     7
 10
-71.070007
 20
174.29999
 11
-68.070007
 21
174.29999
  0
LINE
  8
0
  6
CONTINUOUS
 62
     7
 10
-67.070007
 20
174.29999
 11
-64.070007
 21
174.29999
  0
LINE
  8
0
  6
CONTINUOUS
 62
     7
 10
-67.070007
 20
171.29999
 11
-64.070007
 21
171.29999
  0
LINE
  8
0
  6
CONTINUOUS
 62
     7
 10
-71.070007
 20
171.29999
 11
-68.070007
 21
171.29999
  0
LINE
  8
0
  6
CONTINUOUS
 62
     7
 10
-75.070007
 20
171.29999
 11
-72.070007
 21
171.29999
  0
LINE
  8
0
  6
CONTINUOUS
 62
     7
 10
-79.070007
 20
171.29999
 11
-76.070007
 21
171.29999
  0
LINE
  8
0
  6
CONTINUOUS
 62
     7
 10
-83.070007
 20
171.29999
 11
-80.070007
 21
171.29999
  0
LINE
  8
0
  6
CONTINUOUS
 62
     7
 10
-87.070007
 20
171.29999
 11
-84.070007
 21
171.29999
  0
LINE
  8
0
  6
CONTINUOUS
 62
     7
 10
-91.070007
 20
171.29999
 11
-88.070007
 21
171.29999
  0
LINE
  8
0
  6
CONTINUOUS
 62
     7
 10
-95.070007
 20
171.29999
 11
-92.070007
 21
171.29999
  0
LINE
  8
0
  6
CONTINUOUS
 62
     7
 10
-99.070007
 20
171.29999
 11
-96.070007
 21
171.29999
  0
LINE
  8
0
  6
CONTINUOUS
 62
     7
 10
-103.07001
 20
171.29999
 11
-100.07001
 21
171.29999
  0
LINE
  8
0
  6
CONTINUOUS
 62
     7
 10
-107.07001
 20
171.29999
 11
-104.07001
 21
171.29999
  0
LINE
  8
0
  6
CONTINUOUS
 62
     7
 10
-88.070007
 20
170.29999
 11
-88.070007
 21
167.29999
  0
LINE
  8
0
  6
CONTINUOUS
 62
     7
 10
-87.070007
 20
170.29999
 11
-87.070007
 21
167.29999
  0
LINE
  8
0
  6
CONTINUOUS
 62
     7
 10
-84.070007
 20
170.29999
 11
-84.070007
 21
167.29999
  0
LINE
  8
0
  6
CONTINUOUS
 62
     7
 10
-83.070007
 20
170.29999
 11
-83.070007
 21
167.29999
  0
LINE
  8
0
  6
CONTINUOUS
 62
     7
 10
-80.070007
 20
170.29999
 11
-80.070007
 21
167.41057
  0
LINE
  8
0
  6
CONTINUOUS
 62
     7
 10
-79.070007
 20
170.29999
 11
-79.070007
 21
167.29999
  0
LINE
  8
0
  6
CONTINUOUS
 62
     7
 10
-76.070007
 20
170.29999
 11
-76.070007
 21
167.29999
  0
LINE
  8
0
  6
CONTINUOUS
 62
     7
 10
-75.070007
 20
170.29999
 11
-75.070007
 21
167.29999
  0
LINE
  8
0
  6
CONTINUOUS
 62
     7
 10
-72.070007
 20
170.29999
 11
-72.070007
 21
167.29999
  0
LINE
  8
0
  6
CONTINUOUS
 62
     7
 10
-71.070007
 20
170.29999
 11
-71.070007
 21
167.29999
  0
LINE
  8
0
  6
CONTINUOUS
 62
     7
 10
-68.070007
 20
170.29999
 11
-68.070007
 21
167.29999
  0
LINE
  8
0
  6
CONTINUOUS
 62
     7
 10
-67.070007
 20
170.29999
 11
-67.070007
 21
167.29999
  0
LINE
  8
0
  6
CONTINUOUS
 62
     7
 10
-64.070007
 20
170.29999
 11
-64.070007
 21
167.29999
  0
LINE
  8
0
  6
CONTINUOUS
 62
     7
 10
-91.070007
 20
170.29999
 11
-91.070007
 21
167.29999
  0
LINE
  8
0
  6
CONTINUOUS
 62
     7
 10
-92.070007
 20
170.29999
 11
-92.070007
 21
167.29999
  0
LINE
  8
0
  6
CONTINUOUS
 62
     7
 10
-95.070007
 20
170.29999
 11
-95.070007
 21
167.29999
  0
LINE
  8
0
  6
CONTINUOUS
 62
     7
 10
-96.070007
 20
170.29999
 11
-96.070007
 21
167.29999
  0
LINE
  8
0
  6
CONTINUOUS
 62
     7
 10
-99.070007
 20
170.29999
 11
-99.070007
 21
167.29999
  0
LINE
  8
0
  6
CONTINUOUS
 62
     7
 10
-100.07001
 20
170.29999
 11
-100.07001
 21
167.29999
  0
LINE
  8
0
  6
CONTINUOUS
 62
     7
 10
-103.07001
 20
170.29999
 11
-103.07001
 21
167.29999
  0
LINE
  8
0
  6
CONTINUOUS
 62
     7
 10
-104.07001
 20
170.29999
 11
-104.07001
 21
167.29999
  0
LINE
  8
0
  6
CONTINUOUS
 62
     7
 10
-107.07001
 20
170.29999
 11
-107.07001
 21
167.29999
  0
LINE
  8
0
  6
CONTINUOUS
 62
     7
 10
-108.07001
 20
170.29999
 11
-108.07001
 21
167.29999
  0
LINE
  8
0
  6
CONTINUOUS
 62
     7
 10
-111.07001
 20
170.29999
 11
-111.07001
 21
167.29999
  0
LINE
  8
0
  6
CONTINUOUS
 62
     7
 10
-111.07001
 20
167.29999
 11
-108.07001
 21
167.29999
  0
LINE
  8
0
  6
CONTINUOUS
 62
     7
 10
-111.07001
 20
170.29999
 11
-108.07001
 21
170.29999
  0
LINE
  8
0
  6
CONTINUOUS
 62
     7
 10
-107.07001
 20
170.29999
 11
-104.07001
 21
170.29999
  0
LINE
  8
0
  6
CONTINUOUS
 62
     7
 10
-103.07001
 20
170.29999
 11
-100.07001
 21
170.29999
  0
LINE
  8
0
  6
CONTINUOUS
 62
     7
 10
-99.070007
 20
170.29999
 11
-96.070007
 21
170.29999
  0
LINE
  8
0
  6
CONTINUOUS
 62
     7
 10
-95.070007
 20
170.29999
 11
-92.070007
 21
170.29999
  0
LINE
  8
0
  6
CONTINUOUS
 62
     7
 10
-91.070007
 20
170.29999
 11
-88.070007
 21
170.29999
  0
LINE
  8
0
  6
CONTINUOUS
 62
     7
 10
-87.070007
 20
170.29999
 11
-84.070007
 21
170.29999
  0
LINE
  8
0
  6
CONTINUOUS
 62
     7
 10
-83.070007
 20
170.29999
 11
-80.070007
 21
170.29999
  0
LINE
  8
0
  6
CONTINUOUS
 62
     7
 10
-79.070007
 20
170.29999
 11
-76.070007
 21
170.29999
  0
LINE
  8
0
  6
CONTINUOUS
 62
     7
 10
-75.070007
 20
170.29999
 11
-72.070007
 21
170.29999
  0
LINE
  8
0
  6
CONTINUOUS
 62
     7
 10
-71.070007
 20
170.29999
 11
-68.070007
 21
170.29999
  0
LINE
  8
0
  6
CONTINUOUS
 62
     7
 10
-67.070007
 20
170.29999
 11
-64.070007
 21
170.29999
  0
LINE
  8
0
  6
CONTINUOUS
 62
     7
 10
-67.070007
 20
167.29999
 11
-64.070007
 21
167.29999
  0
LINE
  8
0
  6
CONTINUOUS
 62
     7
 10
-71.070007
 20
167.29999
 11
-68.070007
 21
167.29999
  0
LINE
  8
0
  6
CONTINUOUS
 62
     7
 10
-75.070007
 20
167.29999
 11
-72.070007
 21
167.29999
  0
LINE
  8
0
  6
CONTINUOUS
 62
     7
 10
-79.070007
 20
167.29999
 11
-76.070007
 21
167.29999
  0
LINE
  8
0
  6
CONTINUOUS
 62
     7
 10
-83.070007
 20
167.29999
 11
-80.070007
 21
167.29999
  0
LINE
  8
0
  6
CONTINUOUS
 62
     7
 10
-87.070007
 20
167.29999
 11
-84.070007
 21
167.29999
  0
LINE
  8
0
  6
CONTINUOUS
 62
     7
 10
-91.070007
 20
167.29999
 11
-88.070007
 21
167.29999
  0
LINE
  8
0
  6
CONTINUOUS
 62
     7
 10
-95.070007
 20
167.29999
 11
-92.070007
 21
167.29999
  0
LINE
  8
0
  6
CONTINUOUS
 62
     7
 10
-99.070007
 20
167.29999
 11
-96.070007
 21
167.29999
  0
LINE
  8
0
  6
CONTINUOUS
 62
     7
 10
-103.07001
 20
167.29999
 11
-100.07001
 21
167.29999
  0
LINE
  8
0
  6
CONTINUOUS
 62
     7
 10
-107.07001
 20
167.29999
 11
-104.07001
 21
167.29999
  0
LINE
  8
0
  6
CONTINUOUS
 62
     7
 10
-88.070007
 20
166.29999
 11
-88.070007
 21
163.29999
  0
LINE
  8
0
  6
CONTINUOUS
 62
     7
 10
-87.070007
 20
166.29999
 11
-87.070007
 21
163.29999
  0
LINE
  8
0
  6
CONTINUOUS
 62
     7
 10
-84.070007
 20
166.29999
 11
-84.070007
 21
163.29999
  0
LINE
  8
0
  6
CONTINUOUS
 62
     7
 10
-83.070007
 20
166.29999
 11
-83.070007
 21
163.29999
  0
LINE
  8
0
  6
CONTINUOUS
 62
     7
 10
-80.070007
 20
166.29999
 11
-80.070007
 21
163.41057
  0
LINE
  8
0
  6
CONTINUOUS
 62
     7
 10
-79.070007
 20
166.29999
 11
-79.070007
 21
163.29999
  0
LINE
  8
0
  6
CONTINUOUS
 62
     7
 10
-76.070007
 20
166.29999
 11
-76.070007
 21
163.29999
  0
LINE
  8
0
  6
CONTINUOUS
 62
     7
 10
-75.070007
 20
166.29999
 11
-75.070007
 21
163.29999
  0
LINE
  8
0
  6
CONTINUOUS
 62
     7
 10
-72.070007
 20
166.29999
 11
-72.070007
 21
163.29999
  0
LINE
  8
0
  6
CONTINUOUS
 62
     7
 10
-71.070007
 20
166.29999
 11
-71.070007
 21
163.29999
  0
LINE
  8
0
  6
CONTINUOUS
 62
     7
 10
-68.070007
 20
166.29999
 11
-68.070007
 21
163.29999
  0
LINE
  8
0
  6
CONTINUOUS
 62
     7
 10
-67.070007
 20
166.29999
 11
-67.070007
 21
163.29999
  0
LINE
  8
0
  6
CONTINUOUS
 62
     7
 10
-64.070007
 20
166.29999
 11
-64.070007
 21
163.29999
  0
LINE
  8
0
  6
CONTINUOUS
 62
     7
 10
-91.070007
 20
166.29999
 11
-91.070007
 21
163.29999
  0
LINE
  8
0
  6
CONTINUOUS
 62
     7
 10
-92.070007
 20
166.29999
 11
-92.070007
 21
163.29999
  0
LINE
  8
0
  6
CONTINUOUS
 62
     7
 10
-95.070007
 20
166.29999
 11
-95.070007
 21
163.29999
  0
LINE
  8
0
  6
CONTINUOUS
 62
     7
 10
-96.070007
 20
166.29999
 11
-96.070007
 21
163.29999
  0
LINE
  8
0
  6
CONTINUOUS
 62
     7
 10
-99.070007
 20
166.29999
 11
-99.070007
 21
163.29999
  0
LINE
  8
0
  6
CONTINUOUS
 62
     7
 10
-100.07001
 20
166.29999
 11
-100.07001
 21
163.29999
  0
LINE
  8
0
  6
CONTINUOUS
 62
     7
 10
-103.07001
 20
166.29999
 11
-103.07001
 21
163.29999
  0
LINE
  8
0
  6
CONTINUOUS
 62
     7
 10
-104.07001
 20
166.29999
 11
-104.07001
 21
163.29999
  0
LINE
  8
0
  6
CONTINUOUS
 62
     7
 10
-107.07001
 20
166.29999
 11
-107.07001
 21
163.29999
  0
LINE
  8
0
  6
CONTINUOUS
 62
     7
 10
-108.07001
 20
166.29999
 11
-108.07001
 21
163.29999
  0
LINE
  8
0
  6
CONTINUOUS
 62
     7
 10
-111.07001
 20
166.29999
 11
-111.07001
 21
163.29999
  0
LINE
  8
0
  6
CONTINUOUS
 62
     7
 10
-111.07001
 20
163.29999
 11
-108.07001
 21
163.29999
  0
LINE
  8
0
  6
CONTINUOUS
 62
     7
 10
-111.07001
 20
166.29999
 11
-108.07001
 21
166.29999
  0
LINE
  8
0
  6
CONTINUOUS
 62
     7
 10
-107.07001
 20
166.29999
 11
-104.07001
 21
166.29999
  0
LINE
  8
0
  6
CONTINUOUS
 62
     7
 10
-103.07001
 20
166.29999
 11
-100.07001
 21
166.29999
  0
LINE
  8
0
  6
CONTINUOUS
 62
     7
 10
-99.070007
 20
166.29999
 11
-96.070007
 21
166.29999
  0
LINE
  8
0
  6
CONTINUOUS
 62
     7
 10
-95.070007
 20
166.29999
 11
-92.070007
 21
166.29999
  0
LINE
  8
0
  6
CONTINUOUS
 62
     7
 10
-91.070007
 20
166.29999
 11
-88.070007
 21
166.29999
  0
LINE
  8
0
  6
CONTINUOUS
 62
     7
 10
-87.070007
 20
166.29999
 11
-84.070007
 21
166.29999
  0
LINE
  8
0
  6
CONTINUOUS
 62
     7
 10
-83.070007
 20
166.29999
 11
-80.070007
 21
166.29999
  0
LINE
  8
0
  6
CONTINUOUS
 62
     7
 10
-79.070007
 20
166.29999
 11
-76.070007
 21
166.29999
  0
LINE
  8
0
  6
CONTINUOUS
 62
     7
 10
-75.070007
 20
166.29999
 11
-72.070007
 21
166.29999
  0
LINE
  8
0
  6
CONTINUOUS
 62
     7
 10
-71.070007
 20
166.29999
 11
-68.070007
 21
166.29999
  0
LINE
  8
0
  6
CONTINUOUS
 62
     7
 10
-67.070007
 20
166.29999
 11
-64.070007
 21
166.29999
  0
LINE
  8
0
  6
CONTINUOUS
 62
     7
 10
-67.070007
 20
163.29999
 11
-64.070007
 21
163.29999
  0
LINE
  8
0
  6
CONTINUOUS
 62
     7
 10
-71.070007
 20
163.29999
 11
-68.070007
 21
163.29999
  0
LINE
  8
0
  6
CONTINUOUS
 62
     7
 10
-75.070007
 20
163.29999
 11
-72.070007
 21
163.29999
  0
LINE
  8
0
  6
CONTINUOUS
 62
     7
 10
-79.070007
 20
163.29999
 11
-76.070007
 21
163.29999
  0
LINE
  8
0
  6
CONTINUOUS
 62
     7
 10
-83.070007
 20
163.29999
 11
-80.070007
 21
163.29999
  0
LINE
  8
0
  6
CONTINUOUS
 62
     7
 10
-87.070007
 20
163.29999
 11
-84.070007
 21
163.29999
  0
LINE
  8
0
  6
CONTINUOUS
 62
     7
 10
-91.070007
 20
163.29999
 11
-88.070007
 21
163.29999
  0
LINE
  8
0
  6
CONTINUOUS
 62
     7
 10
-95.070007
 20
163.29999
 11
-92.070007
 21
163.29999
  0
LINE
  8
0
  6
CONTINUOUS
 62
     7
 10
-99.070007
 20
163.29999
 11
-96.070007
 21
163.29999
  0
LINE
  8
0
  6
CONTINUOUS
 62
     7
 10
-103.07001
 20
163.29999
 11
-100.07001
 21
163.29999
  0
LINE
  8
0
  6
CONTINUOUS
 62
     7
 10
-107.07001
 20
163.29999
 11
-104.07001
 21
163.29999
  0
LINE
  8
0
  6
CONTINUOUS
 62
     7
 10
-88.070007
 20
162.29999
 11
-88.070007
 21
159.29999
  0
LINE
  8
0
  6
CONTINUOUS
 62
     7
 10
-87.070007
 20
162.29999
 11
-87.070007
 21
159.29999
  0
LINE
  8
0
  6
CONTINUOUS
 62
     7
 10
-84.070007
 20
162.29999
 11
-84.070007
 21
159.29999
  0
LINE
  8
0
  6
CONTINUOUS
 62
     7
 10
-83.070007
 20
162.29999
 11
-83.070007
 21
159.29999
  0
LINE
  8
0
  6
CONTINUOUS
 62
     7
 10
-80.070007
 20
162.29999
 11
-80.070007
 21
159.41057
  0
LINE
  8
0
  6
CONTINUOUS
 62
     7
 10
-79.070007
 20
162.29999
 11
-79.070007
 21
159.29999
  0
LINE
  8
0
  6
CONTINUOUS
 62
     7
 10
-76.070007
 20
162.29999
 11
-76.070007
 21
159.29999
  0
LINE
  8
0
  6
CONTINUOUS
 62
     7
 10
-75.070007
 20
162.29999
 11
-75.070007
 21
159.29999
  0
LINE
  8
0
  6
CONTINUOUS
 62
     7
 10
-72.070007
 20
162.29999
 11
-72.070007
 21
159.29999
  0
LINE
  8
0
  6
CONTINUOUS
 62
     7
 10
-71.070007
 20
162.29999
 11
-71.070007
 21
159.29999
  0
LINE
  8
0
  6
CONTINUOUS
 62
     7
 10
-68.070007
 20
162.29999
 11
-68.070007
 21
159.29999
  0
LINE
  8
0
  6
CONTINUOUS
 62
     7
 10
-67.070007
 20
162.29999
 11
-67.070007
 21
159.29999
  0
LINE
  8
0
  6
CONTINUOUS
 62
     7
 10
-64.070007
 20
162.29999
 11
-64.070007
 21
159.29999
  0
LINE
  8
0
  6
CONTINUOUS
 62
     7
 10
-91.070007
 20
162.29999
 11
-91.070007
 21
159.29999
  0
LINE
  8
0
  6
CONTINUOUS
 62
     7
 10
-92.070007
 20
162.29999
 11
-92.070007
 21
159.29999
  0
LINE
  8
0
  6
CONTINUOUS
 62
     7
 10
-95.070007
 20
162.29999
 11
-95.070007
 21
159.29999
  0
LINE
  8
0
  6
CONTINUOUS
 62
     7
 10
-96.070007
 20
162.29999
 11
-96.070007
 21
159.29999
  0
LINE
  8
0
  6
CONTINUOUS
 62
     7
 10
-99.070007
 20
162.29999
 11
-99.070007
 21
159.29999
  0
LINE
  8
0
  6
CONTINUOUS
 62
     7
 10
-100.07001
 20
162.29999
 11
-100.07001
 21
159.29999
  0
LINE
  8
0
  6
CONTINUOUS
 62
     7
 10
-103.07001
 20
162.29999
 11
-103.07001
 21
159.29999
  0
LINE
  8
0
  6
CONTINUOUS
 62
     7
 10
-104.07001
 20
162.29999
 11
-104.07001
 21
159.29999
  0
LINE
  8
0
  6
CONTINUOUS
 62
     7
 10
-107.07001
 20
162.29999
 11
-107.07001
 21
159.29999
  0
LINE
  8
0
  6
CONTINUOUS
 62
     7
 10
-108.07001
 20
162.29999
 11
-108.07001
 21
159.29999
  0
LINE
  8
0
  6
CONTINUOUS
 62
     7
 10
-111.07001
 20
162.29999
 11
-111.07001
 21
159.29999
  0
LINE
  8
0
  6
CONTINUOUS
 62
     7
 10
-111.07001
 20
159.29999
 11
-108.07001
 21
159.29999
  0
LINE
  8
0
  6
CONTINUOUS
 62
     7
 10
-111.07001
 20
162.29999
 11
-108.07001
 21
162.29999
  0
LINE
  8
0
  6
CONTINUOUS
 62
     7
 10
-107.07001
 20
162.29999
 11
-104.07001
 21
162.29999
  0
LINE
  8
0
  6
CONTINUOUS
 62
     7
 10
-103.07001
 20
162.29999
 11
-100.07001
 21
162.29999
  0
LINE
  8
0
  6
CONTINUOUS
 62
     7
 10
-99.070007
 20
162.29999
 11
-96.070007
 21
162.29999
  0
LINE
  8
0
  6
CONTINUOUS
 62
     7
 10
-95.070007
 20
162.29999
 11
-92.070007
 21
162.29999
  0
LINE
  8
0
  6
CONTINUOUS
 62
     7
 10
-91.070007
 20
162.29999
 11
-88.070007
 21
162.29999
  0
LINE
  8
0
  6
CONTINUOUS
 62
     7
 10
-87.070007
 20
162.29999
 11
-84.070007
 21
162.29999
  0
LINE
  8
0
  6
CONTINUOUS
 62
     7
 10
-83.070007
 20
162.29999
 11
-80.070007
 21
162.29999
  0
LINE
  8
0
  6
CONTINUOUS
 62
     7
 10
-79.070007
 20
162.29999
 11
-76.070007
 21
162.29999
  0
LINE
  8
0
  6
CONTINUOUS
 62
     7
 10
-75.070007
 20
162.29999
 11
-72.070007
 21
162.29999
  0
LINE
  8
0
  6
CONTINUOUS
 62
     7
 10
-71.070007
 20
162.29999
 11
-68.070007
 21
162.29999
  0
LINE
  8
0
  6
CONTINUOUS
 62
     7
 10
-67.070007
 20
162.29999
 11
-64.070007
 21
162.29999
  0
LINE
  8
0
  6
CONTINUOUS
 62
     7
 10
-67.070007
 20
159.29999
 11
-64.070007
 21
159.29999
  0
LINE
  8
0
  6
CONTINUOUS
 62
     7
 10
-71.070007
 20
159.29999
 11
-68.070007
 21
159.29999
  0
LINE
  8
0
  6
CONTINUOUS
 62
     7
 10
-75.070007
 20
159.29999
 11
-72.070007
 21
159.29999
  0
LINE
  8
0
  6
CONTINUOUS
 62
     7
 10
-79.070007
 20
159.29999
 11
-76.070007
 21
159.29999
  0
LINE
  8
0
  6
CONTINUOUS
 62
     7
 10
-83.070007
 20
159.29999
 11
-80.070007
 21
159.29999
  0
LINE
  8
0
  6
CONTINUOUS
 62
     7
 10
-87.070007
 20
159.29999
 11
-84.070007
 21
159.29999
  0
LINE
  8
0
  6
CONTINUOUS
 62
     7
 10
-91.070007
 20
159.29999
 11
-88.070007
 21
159.29999
  0
LINE
  8
0
  6
CONTINUOUS
 62
     7
 10
-95.070007
 20
159.29999
 11
-92.070007
 21
159.29999
  0
LINE
  8
0
  6
CONTINUOUS
 62
     7
 10
-99.070007
 20
159.29999
 11
-96.070007
 21
159.29999
  0
LINE
  8
0
  6
CONTINUOUS
 62
     7
 10
-103.07001
 20
159.29999
 11
-100.07001
 21
159.29999
  0
LINE
  8
0
  6
CONTINUOUS
 62
     7
 10
-107.07001
 20
159.29999
 11
-104.07001
 21
159.29999
  0
LINE
  8
0
  6
CONTINUOUS
 62
     7
 10
-88.070007
 20
158.29999
 11
-88.070007
 21
155.29999
  0
LINE
  8
0
  6
CONTINUOUS
 62
     7
 10
-87.070007
 20
158.29999
 11
-87.070007
 21
155.29999
  0
LINE
  8
0
  6
CONTINUOUS
 62
     7
 10
-84.070007
 20
158.29999
 11
-84.070007
 21
155.29999
  0
LINE
  8
0
  6
CONTINUOUS
 62
     7
 10
-83.070007
 20
158.29999
 11
-83.070007
 21
155.29999
  0
LINE
  8
0
  6
CONTINUOUS
 62
     7
 10
-80.070007
 20
158.29999
 11
-80.070007
 21
155.41057
  0
LINE
  8
0
  6
CONTINUOUS
 62
     7
 10
-79.070007
 20
158.29999
 11
-79.070007
 21
155.29999
  0
LINE
  8
0
  6
CONTINUOUS
 62
     7
 10
-76.070007
 20
158.29999
 11
-76.070007
 21
155.29999
  0
LINE
  8
0
  6
CONTINUOUS
 62
     7
 10
-75.070007
 20
158.29999
 11
-75.070007
 21
155.29999
  0
LINE
  8
0
  6
CONTINUOUS
 62
     7
 10
-72.070007
 20
158.29999
 11
-72.070007
 21
155.29999
  0
LINE
  8
0
  6
CONTINUOUS
 62
     7
 10
-71.070007
 20
158.29999
 11
-71.070007
 21
155.29999
  0
LINE
  8
0
  6
CONTINUOUS
 62
     7
 10
-68.070007
 20
158.29999
 11
-68.070007
 21
155.29999
  0
LINE
  8
0
  6
CONTINUOUS
 62
     7
 10
-67.070007
 20
158.29999
 11
-67.070007
 21
155.29999
  0
LINE
  8
0
  6
CONTINUOUS
 62
     7
 10
-64.070007
 20
158.29999
 11
-64.070007
 21
155.29999
  0
LINE
  8
0
  6
CONTINUOUS
 62
     7
 10
-91.070007
 20
158.29999
 11
-91.070007
 21
155.29999
  0
LINE
  8
0
  6
CONTINUOUS
 62
     7
 10
-92.070007
 20
158.29999
 11
-92.070007
 21
155.29999
  0
LINE
  8
0
  6
CONTINUOUS
 62
     7
 10
-95.070007
 20
158.29999
 11
-95.070007
 21
155.29999
  0
LINE
  8
0
  6
CONTINUOUS
 62
     7
 10
-96.070007
 20
158.29999
 11
-96.070007
 21
155.29999
  0
LINE
  8
0
  6
CONTINUOUS
 62
     7
 10
-99.070007
 20
158.29999
 11
-99.070007
 21
155.29999
  0
LINE
  8
0
  6
CONTINUOUS
 62
     7
 10
-100.07001
 20
158.29999
 11
-100.07001
 21
155.29999
  0
LINE
  8
0
  6
CONTINUOUS
 62
     7
 10
-103.07001
 20
158.29999
 11
-103.07001
 21
155.29999
  0
LINE
  8
0
  6
CONTINUOUS
 62
     7
 10
-104.07001
 20
158.29999
 11
-104.07001
 21
155.29999
  0
LINE
  8
0
  6
CONTINUOUS
 62
     7
 10
-107.07001
 20
158.29999
 11
-107.07001
 21
155.29999
  0
LINE
  8
0
  6
CONTINUOUS
 62
     7
 10
-108.07001
 20
158.29999
 11
-108.07001
 21
155.29999
  0
LINE
  8
0
  6
CONTINUOUS
 62
     7
 10
-111.07001
 20
158.29999
 11
-111.07001
 21
155.29999
  0
LINE
  8
0
  6
CONTINUOUS
 62
     7
 10
-111.07001
 20
155.29999
 11
-108.07001
 21
155.29999
  0
LINE
  8
0
  6
CONTINUOUS
 62
     7
 10
-111.07001
 20
158.29999
 11
-108.07001
 21
158.29999
  0
LINE
  8
0
  6
CONTINUOUS
 62
     7
 10
-107.07001
 20
158.29999
 11
-104.07001
 21
158.29999
  0
LINE
  8
0
  6
CONTINUOUS
 62
     7
 10
-103.07001
 20
158.29999
 11
-100.07001
 21
158.29999
  0
LINE
  8
0
  6
CONTINUOUS
 62
     7
 10
-99.070007
 20
158.29999
 11
-96.070007
 21
158.29999
  0
LINE
  8
0
  6
CONTINUOUS
 62
     7
 10
-95.070007
 20
158.29999
 11
-92.070007
 21
158.29999
  0
LINE
  8
0
  6
CONTINUOUS
 62
     7
 10
-91.070007
 20
158.29999
 11
-88.070007
 21
158.29999
  0
LINE
  8
0
  6
CONTINUOUS
 62
     7
 10
-87.070007
 20
158.29999
 11
-84.070007
 21
158.29999
  0
LINE
  8
0
  6
CONTINUOUS
 62
     7
 10
-83.070007
 20
158.29999
 11
-80.070007
 21
158.29999
  0
LINE
  8
0
  6
CONTINUOUS
 62
     7
 10
-79.070007
 20
158.29999
 11
-76.070007
 21
158.29999
  0
LINE
  8
0
  6
CONTINUOUS
 62
     7
 10
-75.070007
 20
158.29999
 11
-72.070007
 21
158.29999
  0
LINE
  8
0
  6
CONTINUOUS
 62
     7
 10
-71.070007
 20
158.29999
 11
-68.070007
 21
158.29999
  0
LINE
  8
0
  6
CONTINUOUS
 62
     7
 10
-67.070007
 20
158.29999
 11
-64.070007
 21
158.29999
  0
LINE
  8
0
  6
CONTINUOUS
 62
     7
 10
-67.070007
 20
155.29999
 11
-64.070007
 21
155.29999
  0
LINE
  8
0
  6
CONTINUOUS
 62
     7
 10
-71.070007
 20
155.29999
 11
-68.070007
 21
155.29999
  0
LINE
  8
0
  6
CONTINUOUS
 62
     7
 10
-75.070007
 20
155.29999
 11
-72.070007
 21
155.29999
  0
LINE
  8
0
  6
CONTINUOUS
 62
     7
 10
-79.070007
 20
155.29999
 11
-76.070007
 21
155.29999
  0
LINE
  8
0
  6
CONTINUOUS
 62
     7
 10
-83.070007
 20
155.29999
 11
-80.070007
 21
155.29999
  0
LINE
  8
0
  6
CONTINUOUS
 62
     7
 10
-87.070007
 20
155.29999
 11
-84.070007
 21
155.29999
  0
LINE
  8
0
  6
CONTINUOUS
 62
     7
 10
-91.070007
 20
155.29999
 11
-88.070007
 21
155.29999
  0
LINE
  8
0
  6
CONTINUOUS
 62
     7
 10
-95.070007
 20
155.29999
 11
-92.070007
 21
155.29999
  0
LINE
  8
0
  6
CONTINUOUS
 62
     7
 10
-99.070007
 20
155.29999
 11
-96.070007
 21
155.29999
  0
LINE
  8
0
  6
CONTINUOUS
 62
     7
 10
-103.07001
 20
155.29999
 11
-100.07001
 21
155.29999
  0
LINE
  8
0
  6
CONTINUOUS
 62
     7
 10
-107.07001
 20
155.29999
 11
-104.07001
 21
155.29999
  0
LINE
  8
0
  6
CONTINUOUS
 62
     7
 10
-88.070007
 20
154.29999
 11
-88.070007
 21
151.29999
  0
LINE
  8
0
  6
CONTINUOUS
 62
     7
 10
-87.070007
 20
154.29999
 11
-87.070007
 21
151.29999
  0
LINE
  8
0
  6
CONTINUOUS
 62
     7
 10
-84.070007
 20
154.29999
 11
-84.070007
 21
151.29999
  0
LINE
  8
0
  6
CONTINUOUS
 62
     7
 10
-83.070007
 20
154.29999
 11
-83.070007
 21
151.29999
  0
LINE
  8
0
  6
CONTINUOUS
 62
     7
 10
-80.070007
 20
154.29999
 11
-80.070007
 21
151.41057
  0
LINE
  8
0
  6
CONTINUOUS
 62
     7
 10
-79.070007
 20
154.29999
 11
-79.070007
 21
151.29999
  0
LINE
  8
0
  6
CONTINUOUS
 62
     7
 10
-76.070007
 20
154.29999
 11
-76.070007
 21
151.29999
  0
LINE
  8
0
  6
CONTINUOUS
 62
     7
 10
-75.070007
 20
154.29999
 11
-75.070007
 21
151.29999
  0
LINE
  8
0
  6
CONTINUOUS
 62
     7
 10
-72.070007
 20
154.29999
 11
-72.070007
 21
151.29999
  0
LINE
  8
0
  6
CONTINUOUS
 62
     7
 10
-71.070007
 20
154.29999
 11
-71.070007
 21
151.29999
  0
LINE
  8
0
  6
CONTINUOUS
 62
     7
 10
-68.070007
 20
154.29999
 11
-68.070007
 21
151.29999
  0
LINE
  8
0
  6
CONTINUOUS
 62
     7
 10
-67.070007
 20
154.29999
 11
-67.070007
 21
151.29999
  0
LINE
  8
0
  6
CONTINUOUS
 62
     7
 10
-64.070007
 20
154.29999
 11
-64.070007
 21
151.29999
  0
LINE
  8
0
  6
CONTINUOUS
 62
     7
 10
-91.070007
 20
154.29999
 11
-91.070007
 21
151.29999
  0
LINE
  8
0
  6
CONTINUOUS
 62
     7
 10
-92.070007
 20
154.29999
 11
-92.070007
 21
151.29999
  0
LINE
  8
0
  6
CONTINUOUS
 62
     7
 10
-95.070007
 20
154.29999
 11
-95.070007
 21
151.29999
  0
LINE
  8
0
  6
CONTINUOUS
 62
     7
 10
-96.070007
 20
154.29999
 11
-96.070007
 21
151.29999
  0
LINE
  8
0
  6
CONTINUOUS
 62
     7
 10
-99.070007
 20
154.29999
 11
-99.070007
 21
151.29999
  0
LINE
  8
0
  6
CONTINUOUS
 62
     7
 10
-100.07001
 20
154.29999
 11
-100.07001
 21
151.29999
  0
LINE
  8
0
  6
CONTINUOUS
 62
     7
 10
-103.07001
 20
154.29999
 11
-103.07001
 21
151.29999
  0
LINE
  8
0
  6
CONTINUOUS
 62
     7
 10
-104.07001
 20
154.29999
 11
-104.07001
 21
151.29999
  0
LINE
  8
0
  6
CONTINUOUS
 62
     7
 10
-107.07001
 20
154.29999
 11
-107.07001
 21
151.29999
  0
LINE
  8
0
  6
CONTINUOUS
 62
     7
 10
-108.07001
 20
154.29999
 11
-108.07001
 21
151.29999
  0
LINE
  8
0
  6
CONTINUOUS
 62
     7
 10
-111.07001
 20
154.29999
 11
-111.07001
 21
151.29999
  0
LINE
  8
0
  6
CONTINUOUS
 62
     7
 10
-111.07001
 20
151.29999
 11
-108.07001
 21
151.29999
  0
LINE
  8
0
  6
CONTINUOUS
 62
     7
 10
-111.07001
 20
154.29999
 11
-108.07001
 21
154.29999
  0
LINE
  8
0
  6
CONTINUOUS
 62
     7
 10
-107.07001
 20
154.29999
 11
-104.07001
 21
154.29999
  0
LINE
  8
0
  6
CONTINUOUS
 62
     7
 10
-103.07001
 20
154.29999
 11
-100.07001
 21
154.29999
  0
LINE
  8
0
  6
CONTINUOUS
 62
     7
 10
-99.070007
 20
154.29999
 11
-96.070007
 21
154.29999
  0
LINE
  8
0
  6
CONTINUOUS
 62
     7
 10
-95.070007
 20
154.29999
 11
-92.070007
 21
154.29999
  0
LINE
  8
0
  6
CONTINUOUS
 62
     7
 10
-91.070007
 20
154.29999
 11
-88.070007
 21
154.29999
  0
LINE
  8
0
  6
CONTINUOUS
 62
     7
 10
-87.070007
 20
154.29999
 11
-84.070007
 21
154.29999
  0
LINE
  8
0
  6
CONTINUOUS
 62
     7
 10
-83.070007
 20
154.29999
 11
-80.070007
 21
154.29999
  0
LINE
  8
0
  6
CONTINUOUS
 62
     7
 10
-79.070007
 20
154.29999
 11
-76.070007
 21
154.29999
  0
LINE
  8
0
  6
CONTINUOUS
 62
     7
 10
-75.070007
 20
154.29999
 11
-72.070007
 21
154.29999
  0
LINE
  8
0
  6
CONTINUOUS
 62
     7
 10
-71.070007
 20
154.29999
 11
-68.070007
 21
154.29999
  0
LINE
  8
0
  6
CONTINUOUS
 62
     7
 10
-67.070007
 20
154.29999
 11
-64.070007
 21
154.29999
  0
LINE
  8
0
  6
CONTINUOUS
 62
     7
 10
-67.070007
 20
151.29999
 11
-64.070007
 21
151.29999
  0
LINE
  8
0
  6
CONTINUOUS
 62
     7
 10
-71.070007
 20
151.29999
 11
-68.070007
 21
151.29999
  0
LINE
  8
0
  6
CONTINUOUS
 62
     7
 10
-75.070007
 20
151.29999
 11
-72.070007
 21
151.29999
  0
LINE
  8
0
  6
CONTINUOUS
 62
     7
 10
-79.070007
 20
151.29999
 11
-76.070007
 21
151.29999
  0
LINE
  8
0
  6
CONTINUOUS
 62
     7
 10
-83.070007
 20
151.29999
 11
-80.070007
 21
151.29999
  0
LINE
  8
0
  6
CONTINUOUS
 62
     7
 10
-87.070007
 20
151.29999
 11
-84.070007
 21
151.29999
  0
LINE
  8
0
  6
CONTINUOUS
 62
     7
 10
-91.070007
 20
151.29999
 11
-88.070007
 21
151.29999
  0
LINE
  8
0
  6
CONTINUOUS
 62
     7
 10
-95.070007
 20
151.29999
 11
-92.070007
 21
151.29999
  0
LINE
  8
0
  6
CONTINUOUS
 62
     7
 10
-99.070007
 20
151.29999
 11
-96.070007
 21
151.29999
  0
LINE
  8
0
  6
CONTINUOUS
 62
     7
 10
-103.07001
 20
151.29999
 11
-100.07001
 21
151.29999
  0
LINE
  8
0
  6
CONTINUOUS
 62
     7
 10
-107.07001
 20
151.29999
 11
-104.07001
 21
151.29999
  0
LINE
  8
0
  6
CONTINUOUS
 62
     7
 10
-88.070007
 20
150.29999
 11
-88.070007
 21
147.29999
  0
LINE
  8
0
  6
CONTINUOUS
 62
     7
 10
-87.070007
 20
150.29999
 11
-87.070007
 21
147.29999
  0
LINE
  8
0
  6
CONTINUOUS
 62
     7
 10
-84.070007
 20
150.29999
 11
-84.070007
 21
147.29999
  0
LINE
  8
0
  6
CONTINUOUS
 62
     7
 10
-83.070007
 20
150.29999
 11
-83.070007
 21
147.29999
  0
LINE
  8
0
  6
CONTINUOUS
 62
     7
 10
-80.070007
 20
150.29999
 11
-80.070007
 21
147.41057
  0
LINE
  8
0
  6
CONTINUOUS
 62
     7
 10
-79.070007
 20
150.29999
 11
-79.070007
 21
147.29999
  0
LINE
  8
0
  6
CONTINUOUS
 62
     7
 10
-76.070007
 20
150.29999
 11
-76.070007
 21
147.29999
  0
LINE
  8
0
  6
CONTINUOUS
 62
     7
 10
-75.070007
 20
150.29999
 11
-75.070007
 21
147.29999
  0
LINE
  8
0
  6
CONTINUOUS
 62
     7
 10
-72.070007
 20
150.29999
 11
-72.070007
 21
147.29999
  0
LINE
  8
0
  6
CONTINUOUS
 62
     7
 10
-71.070007
 20
150.29999
 11
-71.070007
 21
147.29999
  0
LINE
  8
0
  6
CONTINUOUS
 62
     7
 10
-68.070007
 20
150.29999
 11
-68.070007
 21
147.29999
  0
LINE
  8
0
  6
CONTINUOUS
 62
     7
 10
-67.070007
 20
150.29999
 11
-67.070007
 21
147.29999
  0
LINE
  8
0
  6
CONTINUOUS
 62
     7
 10
-64.070007
 20
150.29999
 11
-64.070007
 21
147.29999
  0
LINE
  8
0
  6
CONTINUOUS
 62
     7
 10
-91.070007
 20
150.29999
 11
-91.070007
 21
147.29999
  0
LINE
  8
0
  6
CONTINUOUS
 62
     7
 10
-92.070007
 20
150.29999
 11
-92.070007
 21
147.29999
  0
LINE
  8
0
  6
CONTINUOUS
 62
     7
 10
-95.070007
 20
150.29999
 11
-95.070007
 21
147.29999
  0
LINE
  8
0
  6
CONTINUOUS
 62
     7
 10
-96.070007
 20
150.29999
 11
-96.070007
 21
147.29999
  0
LINE
  8
0
  6
CONTINUOUS
 62
     7
 10
-99.070007
 20
150.29999
 11
-99.070007
 21
147.29999
  0
LINE
  8
0
  6
CONTINUOUS
 62
     7
 10
-100.07001
 20
150.29999
 11
-100.07001
 21
147.29999
  0
LINE
  8
0
  6
CONTINUOUS
 62
     7
 10
-103.07001
 20
150.29999
 11
-103.07001
 21
147.29999
  0
LINE
  8
0
  6
CONTINUOUS
 62
     7
 10
-104.07001
 20
150.29999
 11
-104.07001
 21
147.29999
  0
LINE
  8
0
  6
CONTINUOUS
 62
     7
 10
-107.07001
 20
150.29999
 11
-107.07001
 21
147.29999
  0
LINE
  8
0
  6
CONTINUOUS
 62
     7
 10
-108.07001
 20
150.29999
 11
-108.07001
 21
147.29999
  0
LINE
  8
0
  6
CONTINUOUS
 62
     7
 10
-111.07001
 20
150.29999
 11
-111.07001
 21
147.29999
  0
LINE
  8
0
  6
CONTINUOUS
 62
     7
 10
-111.07001
 20
147.29999
 11
-108.07001
 21
147.29999
  0
LINE
  8
0
  6
CONTINUOUS
 62
     7
 10
-111.07001
 20
150.29999
 11
-108.07001
 21
150.29999
  0
LINE
  8
0
  6
CONTINUOUS
 62
     7
 10
-107.07001
 20
150.29999
 11
-104.07001
 21
150.29999
  0
LINE
  8
0
  6
CONTINUOUS
 62
     7
 10
-103.07001
 20
150.29999
 11
-100.07001
 21
150.29999
  0
LINE
  8
0
  6
CONTINUOUS
 62
     7
 10
-99.070007
 20
150.29999
 11
-96.070007
 21
150.29999
  0
LINE
  8
0
  6
CONTINUOUS
 62
     7
 10
-95.070007
 20
150.29999
 11
-92.070007
 21
150.29999
  0
LINE
  8
0
  6
CONTINUOUS
 62
     7
 10
-91.070007
 20
150.29999
 11
-88.070007
 21
150.29999
  0
LINE
  8
0
  6
CONTINUOUS
 62
     7
 10
-87.070007
 20
150.29999
 11
-84.070007
 21
150.29999
  0
LINE
  8
0
  6
CONTINUOUS
 62
     7
 10
-83.070007
 20
150.29999
 11
-80.070007
 21
150.29999
  0
LINE
  8
0
  6
CONTINUOUS
 62
     7
 10
-79.070007
 20
150.29999
 11
-76.070007
 21
150.29999
  0
LINE
  8
0
  6
CONTINUOUS
 62
     7
 10
-75.070007
 20
150.29999
 11
-72.070007
 21
150.29999
  0
LINE
  8
0
  6
CONTINUOUS
 62
     7
 10
-71.070007
 20
150.29999
 11
-68.070007
 21
150.29999
  0
LINE
  8
0
  6
CONTINUOUS
 62
     7
 10
-67.070007
 20
150.29999
 11
-64.070007
 21
150.29999
  0
LINE
  8
0
  6
CONTINUOUS
 62
     7
 10
-67.070007
 20
147.29999
 11
-64.070007
 21
147.29999
  0
LINE
  8
0
  6
CONTINUOUS
 62
     7
 10
-71.070007
 20
147.29999
 11
-68.070007
 21
147.29999
  0
LINE
  8
0
  6
CONTINUOUS
 62
     7
 10
-75.070007
 20
147.29999
 11
-72.070007
 21
147.29999
  0
LINE
  8
0
  6
CONTINUOUS
 62
     7
 10
-79.070007
 20
147.29999
 11
-76.070007
 21
147.29999
  0
LINE
  8
0
  6
CONTINUOUS
 62
     7
 10
-83.070007
 20
147.29999
 11
-80.070007
 21
147.29999
  0
LINE
  8
0
  6
CONTINUOUS
 62
     7
 10
-87.070007
 20
147.29999
 11
-84.070007
 21
147.29999
  0
LINE
  8
0
  6
CONTINUOUS
 62
     7
 10
-91.070007
 20
147.29999
 11
-88.070007
 21
147.29999
  0
LINE
  8
0
  6
CONTINUOUS
 62
     7
 10
-95.070007
 20
147.29999
 11
-92.070007
 21
147.29999
  0
LINE
  8
0
  6
CONTINUOUS
 62
     7
 10
-99.070007
 20
147.29999
 11
-96.070007
 21
147.29999
  0
LINE
  8
0
  6
CONTINUOUS
 62
     7
 10
-103.07001
 20
147.29999
 11
-100.07001
 21
147.29999
  0
LINE
  8
0
  6
CONTINUOUS
 62
     7
 10
-107.07001
 20
147.29999
 11
-104.07001
 21
147.29999
  0
LINE
  8
0
  6
CONTINUOUS
 62
     7
 10
-88.070007
 20
146.29999
 11
-88.070007
 21
143.29999
  0
LINE
  8
0
  6
CONTINUOUS
 62
     7
 10
-87.070007
 20
146.29999
 11
-87.070007
 21
143.29999
  0
LINE
  8
0
  6
CONTINUOUS
 62
     7
 10
-84.070007
 20
146.29999
 11
-84.070007
 21
143.29999
  0
LINE
  8
0
  6
CONTINUOUS
 62
     7
 10
-83.070007
 20
146.29999
 11
-83.070007
 21
143.29999
  0
LINE
  8
0
  6
CONTINUOUS
 62
     7
 10
-80.070007
 20
146.29999
 11
-80.070007
 21
143.41057
  0
LINE
  8
0
  6
CONTINUOUS
 62
     7
 10
-79.070007
 20
146.29999
 11
-79.070007
 21
143.29999
  0
LINE
  8
0
  6
CONTINUOUS
 62
     7
 10
-76.070007
 20
146.29999
 11
-76.070007
 21
143.29999
  0
LINE
  8
0
  6
CONTINUOUS
 62
     7
 10
-75.070007
 20
146.29999
 11
-75.070007
 21
143.29999
  0
LINE
  8
0
  6
CONTINUOUS
 62
     7
 10
-72.070007
 20
146.29999
 11
-72.070007
 21
143.29999
  0
LINE
  8
0
  6
CONTINUOUS
 62
     7
 10
-71.070007
 20
146.29999
 11
-71.070007
 21
143.29999
  0
LINE
  8
0
  6
CONTINUOUS
 62
     7
 10
-68.070007
 20
146.29999
 11
-68.070007
 21
143.29999
  0
LINE
  8
0
  6
CONTINUOUS
 62
     7
 10
-67.070007
 20
146.29999
 11
-67.070007
 21
143.29999
  0
LINE
  8
0
  6
CONTINUOUS
 62
     7
 10
-64.070007
 20
146.29999
 11
-64.070007
 21
143.29999
  0
LINE
  8
0
  6
CONTINUOUS
 62
     7
 10
-91.070007
 20
146.29999
 11
-91.070007
 21
143.29999
  0
LINE
  8
0
  6
CONTINUOUS
 62
     7
 10
-92.070007
 20
146.29999
 11
-92.070007
 21
143.29999
  0
LINE
  8
0
  6
CONTINUOUS
 62
     7
 10
-95.070007
 20
146.29999
 11
-95.070007
 21
143.29999
  0
LINE
  8
0
  6
CONTINUOUS
 62
     7
 10
-96.070007
 20
146.29999
 11
-96.070007
 21
143.29999
  0
LINE
  8
0
  6
CONTINUOUS
 62
     7
 10
-99.070007
 20
146.29999
 11
-99.070007
 21
143.29999
  0
LINE
  8
0
  6
CONTINUOUS
 62
     7
 10
-100.07001
 20
146.29999
 11
-100.07001
 21
143.29999
  0
LINE
  8
0
  6
CONTINUOUS
 62
     7
 10
-103.07001
 20
146.29999
 11
-103.07001
 21
143.29999
  0
LINE
  8
0
  6
CONTINUOUS
 62
     7
 10
-104.07001
 20
146.29999
 11
-104.07001
 21
143.29999
  0
LINE
  8
0
  6
CONTINUOUS
 62
     7
 10
-107.07001
 20
146.29999
 11
-107.07001
 21
143.29999
  0
LINE
  8
0
  6
CONTINUOUS
 62
     7
 10
-108.07001
 20
146.29999
 11
-108.07001
 21
143.29999
  0
LINE
  8
0
  6
CONTINUOUS
 62
     7
 10
-111.07001
 20
146.29999
 11
-111.07001
 21
143.29999
  0
LINE
  8
0
  6
CONTINUOUS
 62
     7
 10
-111.07001
 20
143.29999
 11
-108.07001
 21
143.29999
  0
LINE
  8
0
  6
CONTINUOUS
 62
     7
 10
-111.07001
 20
146.29999
 11
-108.07001
 21
146.29999
  0
LINE
  8
0
  6
CONTINUOUS
 62
     7
 10
-107.07001
 20
146.29999
 11
-104.07001
 21
146.29999
  0
LINE
  8
0
  6
CONTINUOUS
 62
     7
 10
-103.07001
 20
146.29999
 11
-100.07001
 21
146.29999
  0
LINE
  8
0
  6
CONTINUOUS
 62
     7
 10
-99.070007
 20
146.29999
 11
-96.070007
 21
146.29999
  0
LINE
  8
0
  6
CONTINUOUS
 62
     7
 10
-95.070007
 20
146.29999
 11
-92.070007
 21
146.29999
  0
LINE
  8
0
  6
CONTINUOUS
 62
     7
 10
-91.070007
 20
146.29999
 11
-88.070007
 21
146.29999
  0
LINE
  8
0
  6
CONTINUOUS
 62
     7
 10
-87.070007
 20
146.29999
 11
-84.070007
 21
146.29999
  0
LINE
  8
0
  6
CONTINUOUS
 62
     7
 10
-83.070007
 20
146.29999
 11
-80.070007
 21
146.29999
  0
LINE
  8
0
  6
CONTINUOUS
 62
     7
 10
-79.070007
 20
146.29999
 11
-76.070007
 21
146.29999
  0
LINE
  8
0
  6
CONTINUOUS
 62
     7
 10
-75.070007
 20
146.29999
 11
-72.070007
 21
146.29999
  0
LINE
  8
0
  6
CONTINUOUS
 62
     7
 10
-71.070007
 20
146.29999
 11
-68.070007
 21
146.29999
  0
LINE
  8
0
  6
CONTINUOUS
 62
     7
 10
-67.070007
 20
146.29999
 11
-64.070007
 21
146.29999
  0
LINE
  8
0
  6
CONTINUOUS
 62
     7
 10
-67.070007
 20
143.29999
 11
-64.070007
 21
143.29999
  0
LINE
  8
0
  6
CONTINUOUS
 62
     7
 10
-71.070007
 20
143.29999
 11
-68.070007
 21
143.29999
  0
LINE
  8
0
  6
CONTINUOUS
 62
     7
 10
-75.070007
 20
143.29999
 11
-72.070007
 21
143.29999
  0
LINE
  8
0
  6
CONTINUOUS
 62
     7
 10
-79.070007
 20
143.29999
 11
-76.070007
 21
143.29999
  0
LINE
  8
0
  6
CONTINUOUS
 62
     7
 10
-83.070007
 20
143.29999
 11
-80.070007
 21
143.29999
  0
LINE
  8
0
  6
CONTINUOUS
 62
     7
 10
-87.070007
 20
143.29999
 11
-84.070007
 21
143.29999
  0
LINE
  8
0
  6
CONTINUOUS
 62
     7
 10
-91.070007
 20
143.29999
 11
-88.070007
 21
143.29999
  0
LINE
  8
0
  6
CONTINUOUS
 62
     7
 10
-95.070007
 20
143.29999
 11
-92.070007
 21
143.29999
  0
LINE
  8
0
  6
CONTINUOUS
 62
     7
 10
-99.070007
 20
143.29999
 11
-96.070007
 21
143.29999
  0
LINE
  8
0
  6
CONTINUOUS
 62
     7
 10
-103.07001
 20
143.29999
 11
-100.07001
 21
143.29999
  0
LINE
  8
0
  6
CONTINUOUS
 62
     7
 10
-107.07001
 20
143.29999
 11
-104.07001
 21
143.29999
  0
LINE
  8
0
  6
CONTINUOUS
 62
     7
 10
-88.070007
 20
142.29999
 11
-88.070007
 21
139.29999
  0
LINE
  8
0
  6
CONTINUOUS
 62
     7
 10
-87.070007
 20
142.29999
 11
-87.070007
 21
139.29999
  0
LINE
  8
0
  6
CONTINUOUS
 62
     7
 10
-84.070007
 20
142.29999
 11
-84.070007
 21
139.29999
  0
LINE
  8
0
  6
CONTINUOUS
 62
     7
 10
-83.070007
 20
142.29999
 11
-83.070007
 21
139.29999
  0
LINE
  8
0
  6
CONTINUOUS
 62
     7
 10
-80.070007
 20
142.29999
 11
-80.070007
 21
139.41057
  0
LINE
  8
0
  6
CONTINUOUS
 62
     7
 10
-79.070007
 20
142.29999
 11
-79.070007
 21
139.29999
  0
LINE
  8
0
  6
CONTINUOUS
 62
     7
 10
-76.070007
 20
142.29999
 11
-76.070007
 21
139.29999
  0
LINE
  8
0
  6
CONTINUOUS
 62
     7
 10
-75.070007
 20
142.29999
 11
-75.070007
 21
139.29999
  0
LINE
  8
0
  6
CONTINUOUS
 62
     7
 10
-72.070007
 20
142.29999
 11
-72.070007
 21
139.29999
  0
LINE
  8
0
  6
CONTINUOUS
 62
     7
 10
-71.070007
 20
142.29999
 11
-71.070007
 21
139.29999
  0
LINE
  8
0
  6
CONTINUOUS
 62
     7
 10
-68.070007
 20
142.29999
 11
-68.070007
 21
139.29999
  0
LINE
  8
0
  6
CONTINUOUS
 62
     7
 10
-67.070007
 20
142.29999
 11
-67.070007
 21
139.29999
  0
LINE
  8
0
  6
CONTINUOUS
 62
     7
 10
-64.070007
 20
142.29999
 11
-64.070007
 21
139.29999
  0
LINE
  8
0
  6
CONTINUOUS
 62
     7
 10
-91.070007
 20
142.29999
 11
-91.070007
 21
139.29999
  0
LINE
  8
0
  6
CONTINUOUS
 62
     7
 10
-92.070007
 20
142.29999
 11
-92.070007
 21
139.29999
  0
LINE
  8
0
  6
CONTINUOUS
 62
     7
 10
-95.070007
 20
142.29999
 11
-95.070007
 21
139.29999
  0
LINE
  8
0
  6
CONTINUOUS
 62
     7
 10
-96.070007
 20
142.29999
 11
-96.070007
 21
139.29999
  0
LINE
  8
0
  6
CONTINUOUS
 62
     7
 10
-99.070007
 20
142.29999
 11
-99.070007
 21
139.29999
  0
LINE
  8
0
  6
CONTINUOUS
 62
     7
 10
-100.07001
 20
142.29999
 11
-100.07001
 21
139.29999
  0
LINE
  8
0
  6
CONTINUOUS
 62
     7
 10
-103.07001
 20
142.29999
 11
-103.07001
 21
139.29999
  0
LINE
  8
0
  6
CONTINUOUS
 62
     7
 10
-104.07001
 20
142.29999
 11
-104.07001
 21
139.29999
  0
LINE
  8
0
  6
CONTINUOUS
 62
     7
 10
-107.07001
 20
142.29999
 11
-107.07001
 21
139.29999
  0
LINE
  8
0
  6
CONTINUOUS
 62
     7
 10
-108.07001
 20
142.29999
 11
-108.07001
 21
139.29999
  0
LINE
  8
0
  6
CONTINUOUS
 62
     7
 10
-111.07001
 20
142.29999
 11
-111.07001
 21
139.29999
  0
LINE
  8
0
  6
CONTINUOUS
 62
     7
 10
-111.07001
 20
139.29999
 11
-108.07001
 21
139.29999
  0
LINE
  8
0
  6
CONTINUOUS
 62
     7
 10
-111.07001
 20
142.29999
 11
-108.07001
 21
142.29999
  0
LINE
  8
0
  6
CONTINUOUS
 62
     7
 10
-107.07001
 20
142.29999
 11
-104.07001
 21
142.29999
  0
LINE
  8
0
  6
CONTINUOUS
 62
     7
 10
-103.07001
 20
142.29999
 11
-100.07001
 21
142.29999
  0
LINE
  8
0
  6
CONTINUOUS
 62
     7
 10
-99.070007
 20
142.29999
 11
-96.070007
 21
142.29999
  0
LINE
  8
0
  6
CONTINUOUS
 62
     7
 10
-95.070007
 20
142.29999
 11
-92.070007
 21
142.29999
  0
LINE
  8
0
  6
CONTINUOUS
 62
     7
 10
-91.070007
 20
142.29999
 11
-88.070007
 21
142.29999
  0
LINE
  8
0
  6
CONTINUOUS
 62
     7
 10
-87.070007
 20
142.29999
 11
-84.070007
 21
142.29999
  0
LINE
  8
0
  6
CONTINUOUS
 62
     7
 10
-83.070007
 20
142.29999
 11
-80.070007
 21
142.29999
  0
LINE
  8
0
  6
CONTINUOUS
 62
     7
 10
-79.070007
 20
142.29999
 11
-76.070007
 21
142.29999
  0
LINE
  8
0
  6
CONTINUOUS
 62
     7
 10
-75.070007
 20
142.29999
 11
-72.070007
 21
142.29999
  0
LINE
  8
0
  6
CONTINUOUS
 62
     7
 10
-71.070007
 20
142.29999
 11
-68.070007
 21
142.29999
  0
LINE
  8
0
  6
CONTINUOUS
 62
     7
 10
-67.070007
 20
142.29999
 11
-64.070007
 21
142.29999
  0
LINE
  8
0
  6
CONTINUOUS
 62
     7
 10
-67.070007
 20
139.29999
 11
-64.070007
 21
139.29999
  0
LINE
  8
0
  6
CONTINUOUS
 62
     7
 10
-71.070007
 20
139.29999
 11
-68.070007
 21
139.29999
  0
LINE
  8
0
  6
CONTINUOUS
 62
     7
 10
-75.070007
 20
139.29999
 11
-72.070007
 21
139.29999
  0
LINE
  8
0
  6
CONTINUOUS
 62
     7
 10
-79.070007
 20
139.29999
 11
-76.070007
 21
139.29999
  0
LINE
  8
0
  6
CONTINUOUS
 62
     7
 10
-83.070007
 20
139.29999
 11
-80.070007
 21
139.29999
  0
LINE
  8
0
  6
CONTINUOUS
 62
     7
 10
-87.070007
 20
139.29999
 11
-84.070007
 21
139.29999
  0
LINE
  8
0
  6
CONTINUOUS
 62
     7
 10
-91.070007
 20
139.29999
 11
-88.070007
 21
139.29999
  0
LINE
  8
0
  6
CONTINUOUS
 62
     7
 10
-95.070007
 20
139.29999
 11
-92.070007
 21
139.29999
  0
LINE
  8
0
  6
CONTINUOUS
 62
     7
 10
-99.070007
 20
139.29999
 11
-96.070007
 21
139.29999
  0
LINE
  8
0
  6
CONTINUOUS
 62
     7
 10
-103.07001
 20
139.29999
 11
-100.07001
 21
139.29999
  0
LINE
  8
0
  6
CONTINUOUS
 62
     7
 10
-107.07001
 20
139.29999
 11
-104.07001
 21
139.29999
  0
LINE
  8
0
  6
CONTINUOUS
 62
     7
 10
-88.070007
 20
138.29999
 11
-88.070007
 21
135.29999
  0
LINE
  8
0
  6
CONTINUOUS
 62
     7
 10
-87.070007
 20
138.29999
 11
-87.070007
 21
135.29999
  0
LINE
  8
0
  6
CONTINUOUS
 62
     7
 10
-84.070007
 20
138.29999
 11
-84.070007
 21
135.29999
  0
LINE
  8
0
  6
CONTINUOUS
 62
     7
 10
-83.070007
 20
138.29999
 11
-83.070007
 21
135.29999
  0
LINE
  8
0
  6
CONTINUOUS
 62
     7
 10
-80.070007
 20
138.29999
 11
-80.070007
 21
135.41057
  0
LINE
  8
0
  6
CONTINUOUS
 62
     7
 10
-79.070007
 20
138.29999
 11
-79.070007
 21
135.29999
  0
LINE
  8
0
  6
CONTINUOUS
 62
     7
 10
-76.070007
 20
138.29999
 11
-76.070007
 21
135.29999
  0
LINE
  8
0
  6
CONTINUOUS
 62
     7
 10
-75.070007
 20
138.29999
 11
-75.070007
 21
135.29999
  0
LINE
  8
0
  6
CONTINUOUS
 62
     7
 10
-72.070007
 20
138.29999
 11
-72.070007
 21
135.29999
  0
LINE
  8
0
  6
CONTINUOUS
 62
     7
 10
-71.070007
 20
138.29999
 11
-71.070007
 21
135.29999
  0
LINE
  8
0
  6
CONTINUOUS
 62
     7
 10
-68.070007
 20
138.29999
 11
-68.070007
 21
135.29999
  0
LINE
  8
0
  6
CONTINUOUS
 62
     7
 10
-67.070007
 20
138.29999
 11
-67.070007
 21
135.29999
  0
LINE
  8
0
  6
CONTINUOUS
 62
     7
 10
-64.070007
 20
138.29999
 11
-64.070007
 21
135.29999
  0
LINE
  8
0
  6
CONTINUOUS
 62
     7
 10
-91.070007
 20
138.29999
 11
-91.070007
 21
135.29999
  0
LINE
  8
0
  6
CONTINUOUS
 62
     7
 10
-92.070007
 20
138.29999
 11
-92.070007
 21
135.29999
  0
LINE
  8
0
  6
CONTINUOUS
 62
     7
 10
-95.070007
 20
138.29999
 11
-95.070007
 21
135.29999
  0
LINE
  8
0
  6
CONTINUOUS
 62
     7
 10
-96.070007
 20
138.29999
 11
-96.070007
 21
135.29999
  0
LINE
  8
0
  6
CONTINUOUS
 62
     7
 10
-99.070007
 20
138.29999
 11
-99.070007
 21
135.29999
  0
LINE
  8
0
  6
CONTINUOUS
 62
     7
 10
-100.07001
 20
138.29999
 11
-100.07001
 21
135.29999
  0
LINE
  8
0
  6
CONTINUOUS
 62
     7
 10
-103.07001
 20
138.29999
 11
-103.07001
 21
135.29999
  0
LINE
  8
0
  6
CONTINUOUS
 62
     7
 10
-104.07001
 20
138.29999
 11
-104.07001
 21
135.29999
  0
LINE
  8
0
  6
CONTINUOUS
 62
     7
 10
-107.07001
 20
138.29999
 11
-107.07001
 21
135.29999
  0
LINE
  8
0
  6
CONTINUOUS
 62
     7
 10
-108.07001
 20
138.29999
 11
-108.07001
 21
135.29999
  0
LINE
  8
0
  6
CONTINUOUS
 62
     7
 10
-111.07001
 20
138.29999
 11
-111.07001
 21
135.29999
  0
LINE
  8
0
  6
CONTINUOUS
 62
     7
 10
-111.07001
 20
135.29999
 11
-108.07001
 21
135.29999
  0
LINE
  8
0
  6
CONTINUOUS
 62
     7
 10
-111.07001
 20
138.29999
 11
-108.07001
 21
138.29999
  0
LINE
  8
0
  6
CONTINUOUS
 62
     7
 10
-107.07001
 20
138.29999
 11
-104.07001
 21
138.29999
  0
LINE
  8
0
  6
CONTINUOUS
 62
     7
 10
-103.07001
 20
138.29999
 11
-100.07001
 21
138.29999
  0
LINE
  8
0
  6
CONTINUOUS
 62
     7
 10
-99.070007
 20
138.29999
 11
-96.070007
 21
138.29999
  0
LINE
  8
0
  6
CONTINUOUS
 62
     7
 10
-95.070007
 20
138.29999
 11
-92.070007
 21
138.29999
  0
LINE
  8
0
  6
CONTINUOUS
 62
     7
 10
-91.070007
 20
138.29999
 11
-88.070007
 21
138.29999
  0
LINE
  8
0
  6
CONTINUOUS
 62
     7
 10
-87.070007
 20
138.29999
 11
-84.070007
 21
138.29999
  0
LINE
  8
0
  6
CONTINUOUS
 62
     7
 10
-83.070007
 20
138.29999
 11
-80.070007
 21
138.29999
  0
LINE
  8
0
  6
CONTINUOUS
 62
     7
 10
-79.070007
 20
138.29999
 11
-76.070007
 21
138.29999
  0
LINE
  8
0
  6
CONTINUOUS
 62
     7
 10
-75.070007
 20
138.29999
 11
-72.070007
 21
138.29999
  0
LINE
  8
0
  6
CONTINUOUS
 62
     7
 10
-71.070007
 20
138.29999
 11
-68.070007
 21
138.29999
  0
LINE
  8
0
  6
CONTINUOUS
 62
     7
 10
-67.070007
 20
138.29999
 11
-64.070007
 21
138.29999
  0
LINE
  8
0
  6
CONTINUOUS
 62
     7
 10
-67.070007
 20
135.29999
 11
-64.070007
 21
135.29999
  0
LINE
  8
0
  6
CONTINUOUS
 62
     7
 10
-71.070007
 20
135.29999
 11
-68.070007
 21
135.29999
  0
LINE
  8
0
  6
CONTINUOUS
 62
     7
 10
-75.070007
 20
135.29999
 11
-72.070007
 21
135.29999
  0
LINE
  8
0
  6
CONTINUOUS
 62
     7
 10
-79.070007
 20
135.29999
 11
-76.070007
 21
135.29999
  0
LINE
  8
0
  6
CONTINUOUS
 62
     7
 10
-83.070007
 20
135.29999
 11
-80.070007
 21
135.29999
  0
LINE
  8
0
  6
CONTINUOUS
 62
     7
 10
-87.070007
 20
135.29999
 11
-84.070007
 21
135.29999
  0
LINE
  8
0
  6
CONTINUOUS
 62
     7
 10
-91.070007
 20
135.29999
 11
-88.070007
 21
135.29999
  0
LINE
  8
0
  6
CONTINUOUS
 62
     7
 10
-95.070007
 20
135.29999
 11
-92.070007
 21
135.29999
  0
LINE
  8
0
  6
CONTINUOUS
 62
     7
 10
-99.070007
 20
135.29999
 11
-96.070007
 21
135.29999
  0
LINE
  8
0
  6
CONTINUOUS
 62
     7
 10
-103.07001
 20
135.29999
 11
-100.07001
 21
135.29999
  0
LINE
  8
0
  6
CONTINUOUS
 62
     7
 10
-107.07001
 20
135.29999
 11
-104.07001
 21
135.29999
  0
LINE
  8
0
  6
CONTINUOUS
 62
     7
 10
-88.070007
 20
134.29999
 11
-88.070007
 21
131.29999
  0
LINE
  8
0
  6
CONTINUOUS
 62
     7
 10
-87.070007
 20
134.29999
 11
-87.070007
 21
131.29999
  0
LINE
  8
0
  6
CONTINUOUS
 62
     7
 10
-84.070007
 20
134.29999
 11
-84.070007
 21
131.29999
  0
LINE
  8
0
  6
CONTINUOUS
 62
     7
 10
-83.070007
 20
134.29999
 11
-83.070007
 21
131.29999
  0
LINE
  8
0
  6
CONTINUOUS
 62
     7
 10
-80.070007
 20
134.29999
 11
-80.070007
 21
131.41057
  0
LINE
  8
0
  6
CONTINUOUS
 62
     7
 10
-79.070007
 20
134.29999
 11
-79.070007
 21
131.29999
  0
LINE
  8
0
  6
CONTINUOUS
 62
     7
 10
-76.070007
 20
134.29999
 11
-76.070007
 21
131.29999
  0
LINE
  8
0
  6
CONTINUOUS
 62
     7
 10
-75.070007
 20
134.29999
 11
-75.070007
 21
131.29999
  0
LINE
  8
0
  6
CONTINUOUS
 62
     7
 10
-72.070007
 20
134.29999
 11
-72.070007
 21
131.29999
  0
LINE
  8
0
  6
CONTINUOUS
 62
     7
 10
-71.070007
 20
134.29999
 11
-71.070007
 21
131.29999
  0
LINE
  8
0
  6
CONTINUOUS
 62
     7
 10
-68.070007
 20
134.29999
 11
-68.070007
 21
131.29999
  0
LINE
  8
0
  6
CONTINUOUS
 62
     7
 10
-67.070007
 20
134.29999
 11
-67.070007
 21
131.29999
  0
LINE
  8
0
  6
CONTINUOUS
 62
     7
 10
-64.070007
 20
134.29999
 11
-64.070007
 21
131.29999
  0
LINE
  8
0
  6
CONTINUOUS
 62
     7
 10
-91.070007
 20
134.29999
 11
-91.070007
 21
131.29999
  0
LINE
  8
0
  6
CONTINUOUS
 62
     7
 10
-92.070007
 20
134.29999
 11
-92.070007
 21
131.29999
  0
LINE
  8
0
  6
CONTINUOUS
 62
     7
 10
-95.070007
 20
134.29999
 11
-95.070007
 21
131.29999
  0
LINE
  8
0
  6
CONTINUOUS
 62
     7
 10
-96.070007
 20
134.29999
 11
-96.070007
 21
131.29999
  0
LINE
  8
0
  6
CONTINUOUS
 62
     7
 10
-99.070007
 20
134.29999
 11
-99.070007
 21
131.29999
  0
LINE
  8
0
  6
CONTINUOUS
 62
     7
 10
-100.07001
 20
134.29999
 11
-100.07001
 21
131.29999
  0
LINE
  8
0
  6
CONTINUOUS
 62
     7
 10
-103.07001
 20
134.29999
 11
-103.07001
 21
131.29999
  0
LINE
  8
0
  6
CONTINUOUS
 62
     7
 10
-104.07001
 20
134.29999
 11
-104.07001
 21
131.29999
  0
LINE
  8
0
  6
CONTINUOUS
 62
     7
 10
-107.07001
 20
134.29999
 11
-107.07001
 21
131.29999
  0
LINE
  8
0
  6
CONTINUOUS
 62
     7
 10
-108.07001
 20
134.29999
 11
-108.07001
 21
131.29999
  0
LINE
  8
0
  6
CONTINUOUS
 62
     7
 10
-111.07001
 20
134.29999
 11
-111.07001
 21
131.29999
  0
LINE
  8
0
  6
CONTINUOUS
 62
     7
 10
-111.07001
 20
131.29999
 11
-108.07001
 21
131.29999
  0
LINE
  8
0
  6
CONTINUOUS
 62
     7
 10
-111.07001
 20
134.29999
 11
-108.07001
 21
134.29999
  0
LINE
  8
0
  6
CONTINUOUS
 62
     7
 10
-107.07001
 20
134.29999
 11
-104.07001
 21
134.29999
  0
LINE
  8
0
  6
CONTINUOUS
 62
     7
 10
-103.07001
 20
134.29999
 11
-100.07001
 21
134.29999
  0
LINE
  8
0
  6
CONTINUOUS
 62
     7
 10
-99.070007
 20
134.29999
 11
-96.070007
 21
134.29999
  0
LINE
  8
0
  6
CONTINUOUS
 62
     7
 10
-95.070007
 20
134.29999
 11
-92.070007
 21
134.29999
  0
LINE
  8
0
  6
CONTINUOUS
 62
     7
 10
-91.070007
 20
134.29999
 11
-88.070007
 21
134.29999
  0
LINE
  8
0
  6
CONTINUOUS
 62
     7
 10
-87.070007
 20
134.29999
 11
-84.070007
 21
134.29999
  0
LINE
  8
0
  6
CONTINUOUS
 62
     7
 10
-83.070007
 20
134.29999
 11
-80.070007
 21
134.29999
  0
LINE
  8
0
  6
CONTINUOUS
 62
     7
 10
-79.070007
 20
134.29999
 11
-76.070007
 21
134.29999
  0
LINE
  8
0
  6
CONTINUOUS
 62
     7
 10
-75.070007
 20
134.29999
 11
-72.070007
 21
134.29999
  0
LINE
  8
0
  6
CONTINUOUS
 62
     7
 10
-71.070007
 20
134.29999
 11
-68.070007
 21
134.29999
  0
LINE
  8
0
  6
CONTINUOUS
 62
     7
 10
-67.070007
 20
134.29999
 11
-64.070007
 21
134.29999
  0
LINE
  8
0
  6
CONTINUOUS
 62
     7
 10
-67.070007
 20
131.29999
 11
-64.070007
 21
131.29999
  0
LINE
  8
0
  6
CONTINUOUS
 62
     7
 10
-71.070007
 20
131.29999
 11
-68.070007
 21
131.29999
  0
LINE
  8
0
  6
CONTINUOUS
 62
     7
 10
-75.070007
 20
131.29999
 11
-72.070007
 21
131.29999
  0
LINE
  8
0
  6
CONTINUOUS
 62
     7
 10
-79.070007
 20
131.29999
 11
-76.070007
 21
131.29999
  0
LINE
  8
0
  6
CONTINUOUS
 62
     7
 10
-83.070007
 20
131.29999
 11
-80.070007
 21
131.29999
  0
LINE
  8
0
  6
CONTINUOUS
 62
     7
 10
-87.070007
 20
131.29999
 11
-84.070007
 21
131.29999
  0
LINE
  8
0
  6
CONTINUOUS
 62
     7
 10
-91.070007
 20
131.29999
 11
-88.070007
 21
131.29999
  0
LINE
  8
0
  6
CONTINUOUS
 62
     7
 10
-95.070007
 20
131.29999
 11
-92.070007
 21
131.29999
  0
LINE
  8
0
  6
CONTINUOUS
 62
     7
 10
-99.070007
 20
131.29999
 11
-96.070007
 21
131.29999
  0
LINE
  8
0
  6
CONTINUOUS
 62
     7
 10
-103.07001
 20
131.29999
 11
-100.07001
 21
131.29999
  0
LINE
  8
0
  6
CONTINUOUS
 62
     7
 10
-107.07001
 20
131.29999
 11
-104.07001
 21
131.29999
  0
LINE
  8
0
  6
CONTINUOUS
 62
     7
 10
-88.070007
 20
130.29999
 11
-88.070007
 21
127.29999
  0
LINE
  8
0
  6
CONTINUOUS
 62
     7
 10
-87.070007
 20
130.29999
 11
-87.070007
 21
127.29999
  0
LINE
  8
0
  6
CONTINUOUS
 62
     7
 10
-84.070007
 20
130.29999
 11
-84.070007
 21
127.29999
  0
LINE
  8
0
  6
CONTINUOUS
 62
     7
 10
-83.070007
 20
130.29999
 11
-83.070007
 21
127.29999
  0
LINE
  8
0
  6
CONTINUOUS
 62
     7
 10
-80.070007
 20
130.29999
 11
-80.070007
 21
127.41057
  0
LINE
  8
0
  6
CONTINUOUS
 62
     7
 10
-79.070007
 20
130.29999
 11
-79.070007
 21
127.29999
  0
LINE
  8
0
  6
CONTINUOUS
 62
     7
 10
-76.070007
 20
130.29999
 11
-76.070007
 21
127.29999
  0
LINE
  8
0
  6
CONTINUOUS
 62
     7
 10
-75.070007
 20
130.29999
 11
-75.070007
 21
127.29999
  0
LINE
  8
0
  6
CONTINUOUS
 62
     7
 10
-72.070007
 20
130.29999
 11
-72.070007
 21
127.29999
  0
LINE
  8
0
  6
CONTINUOUS
 62
     7
 10
-71.070007
 20
130.29999
 11
-71.070007
 21
127.29999
  0
LINE
  8
0
  6
CONTINUOUS
 62
     7
 10
-68.070007
 20
130.29999
 11
-68.070007
 21
127.29999
  0
LINE
  8
0
  6
CONTINUOUS
 62
     7
 10
-67.070007
 20
130.29999
 11
-67.070007
 21
127.29999
  0
LINE
  8
0
  6
CONTINUOUS
 62
     7
 10
-64.070007
 20
130.29999
 11
-64.070007
 21
127.29999
  0
LINE
  8
0
  6
CONTINUOUS
 62
     7
 10
-91.070007
 20
130.29999
 11
-91.070007
 21
127.29999
  0
LINE
  8
0
  6
CONTINUOUS
 62
     7
 10
-92.070007
 20
130.29999
 11
-92.070007
 21
127.29999
  0
LINE
  8
0
  6
CONTINUOUS
 62
     7
 10
-95.070007
 20
130.29999
 11
-95.070007
 21
127.29999
  0
LINE
  8
0
  6
CONTINUOUS
 62
     7
 10
-96.070007
 20
130.29999
 11
-96.070007
 21
127.29999
  0
LINE
  8
0
  6
CONTINUOUS
 62
     7
 10
-99.070007
 20
130.29999
 11
-99.070007
 21
127.29999
  0
LINE
  8
0
  6
CONTINUOUS
 62
     7
 10
-100.07001
 20
130.29999
 11
-100.07001
 21
127.29999
  0
LINE
  8
0
  6
CONTINUOUS
 62
     7
 10
-103.07001
 20
130.29999
 11
-103.07001
 21
127.29999
  0
LINE
  8
0
  6
CONTINUOUS
 62
     7
 10
-104.07001
 20
130.29999
 11
-104.07001
 21
127.29999
  0
LINE
  8
0
  6
CONTINUOUS
 62
     7
 10
-107.07001
 20
130.29999
 11
-107.07001
 21
127.29999
  0
LINE
  8
0
  6
CONTINUOUS
 62
     7
 10
-108.07001
 20
130.29999
 11
-108.07001
 21
127.29999
  0
LINE
  8
0
  6
CONTINUOUS
 62
     7
 10
-111.07001
 20
130.29999
 11
-111.07001
 21
127.29999
  0
LINE
  8
0
  6
CONTINUOUS
 62
     7
 10
-111.07001
 20
127.29999
 11
-108.07001
 21
127.29999
  0
LINE
  8
0
  6
CONTINUOUS
 62
     7
 10
-111.07001
 20
130.29999
 11
-108.07001
 21
130.29999
  0
LINE
  8
0
  6
CONTINUOUS
 62
     7
 10
-107.07001
 20
130.29999
 11
-104.07001
 21
130.29999
  0
LINE
  8
0
  6
CONTINUOUS
 62
     7
 10
-103.07001
 20
130.29999
 11
-100.07001
 21
130.29999
  0
LINE
  8
0
  6
CONTINUOUS
 62
     7
 10
-99.070007
 20
130.29999
 11
-96.070007
 21
130.29999
  0
LINE
  8
0
  6
CONTINUOUS
 62
     7
 10
-95.070007
 20
130.29999
 11
-92.070007
 21
130.29999
  0
LINE
  8
0
  6
CONTINUOUS
 62
     7
 10
-91.070007
 20
130.29999
 11
-88.070007
 21
130.29999
  0
LINE
  8
0
  6
CONTINUOUS
 62
     7
 10
-87.070007
 20
130.29999
 11
-84.070007
 21
130.29999
  0
LINE
  8
0
  6
CONTINUOUS
 62
     7
 10
-83.070007
 20
130.29999
 11
-80.070007
 21
130.29999
  0
LINE
  8
0
  6
CONTINUOUS
 62
     7
 10
-79.070007
 20
130.29999
 11
-76.070007
 21
130.29999
  0
LINE
  8
0
  6
CONTINUOUS
 62
     7
 10
-75.070007
 20
130.29999
 11
-72.070007
 21
130.29999
  0
LINE
  8
0
  6
CONTINUOUS
 62
     7
 10
-71.070007
 20
130.29999
 11
-68.070007
 21
130.29999
  0
LINE
  8
0
  6
CONTINUOUS
 62
     7
 10
-67.070007
 20
130.29999
 11
-64.070007
 21
130.29999
  0
LINE
  8
0
  6
CONTINUOUS
 62
     7
 10
-67.070007
 20
127.29999
 11
-64.070007
 21
127.29999
  0
LINE
  8
0
  6
CONTINUOUS
 62
     7
 10
-71.070007
 20
127.29999
 11
-68.070007
 21
127.29999
  0
LINE
  8
0
  6
CONTINUOUS
 62
     7
 10
-75.070007
 20
127.29999
 11
-72.070007
 21
127.29999
  0
LINE
  8
0
  6
CONTINUOUS
 62
     7
 10
-79.070007
 20
127.29999
 11
-76.070007
 21
127.29999
  0
LINE
  8
0
  6
CONTINUOUS
 62
     7
 10
-83.070007
 20
127.29999
 11
-80.070007
 21
127.29999
  0
LINE
  8
0
  6
CONTINUOUS
 62
     7
 10
-87.070007
 20
127.29999
 11
-84.070007
 21
127.29999
  0
LINE
  8
0
  6
CONTINUOUS
 62
     7
 10
-91.070007
 20
127.29999
 11
-88.070007
 21
127.29999
  0
LINE
  8
0
  6
CONTINUOUS
 62
     7
 10
-95.070007
 20
127.29999
 11
-92.070007
 21
127.29999
  0
LINE
  8
0
  6
CONTINUOUS
 62
     7
 10
-99.070007
 20
127.29999
 11
-96.070007
 21
127.29999
  0
LINE
  8
0
  6
CONTINUOUS
 62
     7
 10
-103.07001
 20
127.29999
 11
-100.07001
 21
127.29999
  0
LINE
  8
0
  6
CONTINUOUS
 62
     7
 10
-107.07001
 20
127.29999
 11
-104.07001
 21
127.29999
  0
LINE
  8
0
  6
CONTINUOUS
 62
     7
 10
0
 20
274.5
 11
0
 21
0
  0
LINE
  8
0
  6
CONTINUOUS
 62
     7
 10
-176.8
 20
0
 11
0
 21
0
  0
LINE
  8
0
  6
CONTINUOUS
 62
     7
 10
-176.8
 20
274.5
 11
0
 21
274.5
  0
LINE
  8
0
  6
CONTINUOUS
 62
     7
 10
-176.8
 20
274.5
 11
-176.8
 21
0
  0
LINE
  8
0
  6
CONTINUOUS
 62
     7
 10
-61.599998
 20
38.5
 11
-61.599998
 21
0
  0
LINE
  8
0
  6
CONTINUOUS
 62
     7
 10
-61.599998
 20
12.5
 11
0
 21
12.5
  0
LINE
  8
0
  6
CONTINUOUS
 62
     7
 10
-61.599998
 20
25
 11
0
 21
25
  0
LINE
  8
0
  6
CONTINUOUS
 62
     7
 10
-61.599998
 20
38.5
 11
0
 21
38.5
  0
LINE
  8
0
  6
CONTINUOUS
 62
     7
 10
-176.60001
 20
0.2
 11
0
 21
0.2
  0
LINE
  8
0
  6
CONTINUOUS
 62
     7
 10
-176.60001
 20
274.5
 11
-176.60001
 21
0.2
  0
LINE
  8
0
  6
CONTINUOUS
 62
     7
 10
0.2
 20
274.70001
 11
0.2
 21
0
  0
LINE
  8
0
  6
CONTINUOUS
 62
     7
 10
-176.8
 20
274.70001
 11
0.2
 21
274.70001
  0
TEXT
  8
0
  6
CONTINUOUS
 62
     7
 10
-38.127659
 20
28.913692
 40
4.8000002
 41
0.85537021
  1
ゴム板
  0
TEXT
  8
0
  6
CONTINUOUS
 62
     7
 10
-52.007792
 20
15.462118
 40
4.8000002
 41
0.84496196
  1
５ｔＸ５０Ｘ１００
  0
TEXT
  8
0
  6
CONTINUOUS
 62
     7
 10
-45.132709
 20
3.7001138
 40
4.8000002
 41
0.84741096
  1
３１０５３６
  0
ENDSEC
  0
EOF
