  0
SECTION
  2
HEADER
  9
$EXTMAX
 10
1.2182922
 20
274.528
 30
0
  9
$EXTMIN
 10
-177.2301
 20
-1.0560455
 30
0
  9
$LIMMAX
 10
1.2182922
 20
274.528
  9
$LIMMIN
 10
-177.2301
 20
-1.0560455
  9
$PLIMMAX
 10
1.2182922
 20
274.528
  9
$PLIMMIN
 10
-177.2301
 20
-1.0560455
  9
$PEXTMAX
 10
1.2182922
 20
274.528
 30
0
  9
$PEXTMIN
 10
-177.2301
 20
-1.0560455
 30
0
  9
$TEXTSIZE
 40
3.2
  9
$DIMSHO
 70
     0
  9
$DIMASZ
 40
1.0
  9
$DIMTAD
 70
     1
  9
$DIMTIH
 70
     0
  9
$DIMTOH
 70
     0
  9
$DIMEXE
 40
2.54
  9
$DIMEXO
 40
2.54
  9
$DIMTVP
 40
1.0
  9
$DIMSAH
 70
     1
  9
$DIMDLE
 40
0.0
  9
$DIMTXT
 40
3.2
  9
$DIMGAP
 40
1.6
  0
ENDSEC
  0
SECTION
  2
TABLES
  0
TABLE
  2
LTYPE
 70
     39
  0
LTYPE
  2
CONTINUOUS
 70
    64
  3
Solid line
 72
    65
 73
     0
 40
0.0
  0
LTYPE
  2
ACAD_ISO02W100
 70
     0
  3
ISO dash __ __ __ __ __ __ __ __ __ __ __ __ __
 72
    65
 73
     2
 40
15.0
 49
12.0
 49
-3.0
  0
LTYPE
  2
ACAD_ISO03W100
 70
     0
  3
ISO dash space __    __    __    __    __    __
 72
    65
 73
     2
 40
30.0
 49
12.0
 49
-18.0
  0
LTYPE
  2
ACAD_ISO04W100
 70
     0
  3
ISO long-dash dot ____ . ____ . ____ . ____ . _
 72
    65
 73
     4
 40
30.0
 49
24.0
 49
-3.0
 49
0.0
 49
-3.0
  0
LTYPE
  2
ACAD_ISO05W100
 70
     0
  3
ISO long-dash double-dot ____ .. ____ .. ____ .
 72
    65
 73
     6
 40
33.0
 49
24.0
 49
-3.0
 49
0.0
 49
-3.0
 49
0.0
 49
-3.0
  0
LTYPE
  2
ACAD_ISO06W100
 70
     0
  3
ISO long-dash triple-dot ____ ... ____ ... ____
 72
    65
 73
     8
 40
36.0
 49
24.0
 49
-3.0
 49
0.0
 49
-3.0
 49
0.0
 49
-3.0
 49
0.0
 49
-3.0
  0
LTYPE
  2
ACAD_ISO07W100
 70
     0
  3
ISO dot . . . . . . . . . . . . . . . . . . . .
 72
    65
 73
     2
 40
3.0
 49
0.0
 49
-3.0
  0
LTYPE
  2
ACAD_ISO08W100
 70
     0
  3
ISO long-dash short-dash ____ __ ____ __ ____ _
 72
    65
 73
     4
 40
36.0
 49
24.0
 49
-3.0
 49
6.0
 49
-3.0
  0
LTYPE
  2
ACAD_ISO09W100
 70
     0
  3
ISO long-dash double-short-dash ____ __ __ ____
 72
    65
 73
     6
 40
45.0
 49
24.0
 49
-3.0
 49
6.0
 49
-3.0
 49
6.0
 49
-3.0
  0
LTYPE
  2
ACAD_ISO10W100
 70
     0
  3
ISO dash dot __ . __ . __ . __ . __ . __ . __ .
 72
    65
 73
     4
 40
18.0
 49
12.0
 49
-3.0
 49
0.0
 49
-3.0
  0
LTYPE
  2
ACAD_ISO11W100
 70
     0
  3
ISO double-dash dot __ __ . __ __ . __ __ . __ 
 72
    65
 73
     6
 40
33.0
 49
12.0
 49
-3.0
 49
12.0
 49
-3.0
 49
0.0
 49
-3.0
  0
LTYPE
  2
ACAD_ISO12W100
 70
     0
  3
ISO dash double-dot __ . . __ . . __ . . __ . .
 72
    65
 73
     6
 40
21.0
 49
12.0
 49
-3.0
 49
0.0
 49
-3.0
 49
0.0
 49
-3.0
  0
LTYPE
  2
ACAD_ISO13W100
 70
     0
  3
ISO double-dash double-dot __ __ . . __ __ . . 
 72
    65
 73
     8
 40
36.0
 49
12.0
 49
-3.0
 49
12.0
 49
-3.0
 49
0.0
 49
-3.0
 49
0.0
 49
-3.0
  0
LTYPE
  2
ACAD_ISO14W100
 70
     0
  3
ISO dash triple-dot __ . . . __ . . . __ . . . 
 72
    65
 73
     8
 40
24.0
 49
12.0
 49
-3.0
 49
0.0
 49
-3.0
 49
0.0
 49
-3.0
 49
0.0
 49
-3.0
  0
LTYPE
  2
ACAD_ISO15W100
 70
     0
  3
ISO double-dash triple-dot __ __ . . . __ __ . 
 72
    65
 73
    10
 40
39.0
 49
12.0
 49
-3.0
 49
12.0
 49
-3.0
 49
0.0
 49
-3.0
 49
0.0
 49
-3.0
 49
0.0
 49
-3.0
  0
LTYPE
  2
BORDER
 70
    64
  3
Border __ __ . __ __ . __ __ . __ __ . __ __ .
 72
    65
 73
     6
 40
3.5
 49
1.0
 49
-0.5
 49
1.0
 49
-0.5
 49
0.0
 49
-0.5
  0
LTYPE
  2
BORDER2
 70
    64
  3
Border (.5x) __.__.__.__.__.__.__.__.__.__.__.
 72
    65
 73
     6
 40
1.75
 49
0.5
 49
-0.25
 49
0.5
 49
-0.25
 49
0.0
 49
-0.25
  0
LTYPE
  2
BORDERX2
 70
    64
  3
Border (2x) ____  ____  .  ____  ____  .  ___
 72
    65
 73
     6
 40
7.0
 49
2.0
 49
-1.0
 49
2.0
 49
-1.0
 49
0.0
 49
-1.0
  0
LTYPE
  2
CENTER
 70
    64
  3
Center ____ _ ____ _ ____ _ ____ _ ____ _ ____
 72
    65
 73
     4
 40
12.0
 49
7.5
 49
-1.5
 49
1.5
 49
-1.5
  0
LTYPE
  2
CENTER2
 70
    64
  3
Center (.5x) ___ _ ___ _ ___ _ ___ _ ___ _ ___
 72
    65
 73
     4
 40
6.0
 49
3.75
 49
-0.75
 49
0.75
 49
-0.75
  0
LTYPE
  2
CENTERX2
 70
    64
  3
Center (2x) ________  __  ________  __  _____
 72
    65
 73
     4
 40
24.0
 49
15.0
 49
-3.0
 49
3.0
 49
-3.0
  0
LTYPE
  2
DASHDOT
 70
    64
  3
Dash dot __ . __ . __ . __ . __ . __ . __ . __
 72
    65
 73
     4
 40
6.0
 49
3.0
 49
-1.5
 49
0.0
 49
-1.5
  0
LTYPE
  2
DASHDOT2
 70
    64
  3
Dash dot (.5x) _._._._._._._._._._._._._._._.
 72
    65
 73
     4
 40
3.0
 49
1.5
 49
-0.75
 49
0.0
 49
-0.75
  0
LTYPE
  2
DASHDOTX2
 70
    64
  3
Dash dot (2x) ____  .  ____  .  ____  .  ___
 72
    65
 73
     4
 40
12.0
 49
6.0
 49
-3.0
 49
0.0
 49
-3.0
  0
LTYPE
  2
DASHED
 70
    64
  3
Dashed __ __ __ __ __ __ __ __ __ __ __ __ __ _
 72
    65
 73
     2
 40
4.5
 49
3.0
 49
-1.5
  0
LTYPE
  2
DASHED2
 70
    64
  3
Dashed (.5x) _ _ _ _ _ _ _ _ _ _ _ _ _ _ _ _ _
 72
    65
 73
     2
 40
2.25
 49
1.5
 49
-0.75
  0
LTYPE
  2
DASHEDX2
 70
    64
  3
Dashed (2x) ____  ____  ____  ____  ____  ___
 72
    65
 73
     2
 40
9.0
 49
6.0
 49
-3.0
  0
LTYPE
  2
DIVIDE
 70
    64
  3
Divide ____ . . ____ . . ____ . . ____ . . ____
 72
    65
 73
     6
 40
7.5
 49
3.0
 49
-1.5
 49
0.0
 49
-1.5
 49
0.0
 49
-1.5
  0
LTYPE
  2
DIVIDE2
 70
    64
  3
Divide (.5x) __..__..__..__..__..__..__..__.._
 72
    65
 73
     6
 40
3.75
 49
1.5
 49
-0.75
 49
0.0
 49
-0.75
 49
0.0
 49
-0.75
  0
LTYPE
  2
DIVIDEX2
 70
    64
  3
Divide (2x) ________  .  .  ________  .  .  _
 72
    65
 73
     6
 40
15.0
 49
6.0
 49
-3.0
 49
0.0
 49
-3.0
 49
0.0
 49
-3.0
  0
LTYPE
  2
DOT
 70
    64
  3
Dot . . . . . . . . . . . . . . . . . . . . . .
 72
    65
 73
     2
 40
1.5
 49
0.0
 49
-1.5
  0
LTYPE
  2
DOT2
 70
    64
  3
Dot (.5x) .....................................
 72
    65
 73
     2
 40
0.75
 49
0.0
 49
-0.75
  0
LTYPE
  2
DOTX2
 70
    64
  3
Dot (2x) .  .  .  .  .  .  .  .  .  .  .  .  . 
 72
    65
 73
     2
 40
3.0
 49
0.0
 49
-3.0
  0
LTYPE
  2
HIDDEN
 70
    64
  3
Hidden __ __ __ __ __ __ __ __ __ __ __ __ __ _
 72
    65
 73
     2
 40
4.5
 49
3.0
 49
-1.5
  0
LTYPE
  2
HIDDEN2
 70
    64
  3
Hidden (.5x) _ _ _ _ _ _ _ _ _ _ _ _ _ _ _ _ _
 72
    65
 73
     2
 40
2.25
 49
1.5
 49
-0.75
  0
LTYPE
  2
HIDDENX2
 70
    64
  3
Hidden (2x) ____ ____ ____ ____ ____ ____ ____
 72
    65
 73
     2
 40
9.0
 49
6.0
 49
-3.0
  0
LTYPE
  2
PHANTOM
 70
    64
  3
Phantom ______  __  __  ______  __  __  ______
 72
    65
 73
     6
 40
15.0
 49
7.5
 49
-1.5
 49
1.5
 49
-1.5
 49
1.5
 49
-1.5
  0
LTYPE
  2
PHANTOM2
 70
    64
  3
Phantom (.5x) ___ _ _ ___ _ _ ___ _ _ ___ _ _
 72
    65
 73
     6
 40
7.5
 49
3.75
 49
-0.75
 49
0.75
 49
-0.75
 49
0.75
 49
-0.75
  0
LTYPE
  2
PHANTOMX2
 70
    64
  3
Phantom (2x) ____________    ____    ____   _
 72
    65
 73
     6
 40
30.0
 49
15.0
 49
-3.0
 49
3.0
 49
-3.0
 49
3.0
 49
-3.0
  0
ENDTAB
  0
TABLE
  2
LAYER
 70
     1
  0
LAYER
  2
0
 70
     0
 62
     7
  6
CONTINUOUS
  0
ENDTAB
  0
TABLE
  2
STYLE
 70
     1
  0
STYLE
  2
STANDARD
 70
     0
 40
0.0
 41
1.0
 50
0.0
 71
     0
 42
0.2
  3
txt
  4
BIGFONT
  0
ENDTAB
  0
TABLE
  2
DIMSTYLE
 70
     0
  0
ENDTAB
  0
ENDSEC
  0
SECTION
  2
BLOCKS
  0
ENDSEC
  0
SECTION
  2
ENTITIES
  0
LINE
  8
0
  6
CONTINUOUS
 62
     7
 10
-131.05353
 20
166.78796
 11
-85.053535
 21
166.78796
  0
LINE
  8
0
  6
CONTINUOUS
 62
     7
 10
-131.05353
 20
196.78796
 11
-85.053535
 21
196.78796
  0
LINE
  8
0
  6
CENTER
 62
     7
 10
-108.05354
 20
201.2119
 11
-108.05354
 21
164.33302
  0
LINE
  8
0
  6
CENTER
 62
     7
 10
-135.95676
 20
181.78796
 11
-80.632103
 21
181.78796
  0
LINE
  8
0
  6
CONTINUOUS
 62
     7
 10
-116.94398
 20
184.83797
 11
-99.163094
 21
184.83797
  0
LINE
  8
0
  6
CONTINUOUS
 62
     7
 10
-116.94398
 20
178.73796
 11
-99.163094
 21
178.73796
  0
LINE
  8
0
  6
CONTINUOUS
 62
     7
 10
-133.05353
 20
194.78796
 11
-133.05353
 21
168.78796
  0
LINE
  8
0
  6
CONTINUOUS
 62
     7
 10
-83.053535
 20
194.78796
 11
-83.053535
 21
168.78796
  0
LINE
  8
0
  6
CONTINUOUS
 62
     7
 10
-116.94398
 20
184.83797
 11
-116.94398
 21
178.73796
  0
LINE
  8
0
  6
CONTINUOUS
 62
     7
 10
-99.163094
 20
184.83797
 11
-99.163094
 21
178.73796
  0
LINE
  8
0
  6
CENTER
 62
     7
 10
-108.05354
 20
118.69626
 11
-108.05354
 21
94.643097
  0
LINE
  8
0
  6
CONTINUOUS
 62
     7
 10
-116.94398
 20
115.54098
 11
-99.163094
 21
115.54098
  0
LINE
  8
0
  6
CONTINUOUS
 62
     7
 10
-112.05354
 20
112.96899
 11
-112.05354
 21
108.14915
  0
LINE
  8
0
  6
CONTINUOUS
 62
     7
 10
-104.05354
 20
112.96899
 11
-104.05354
 21
108.14915
  0
LINE
  8
0
  6
CONTINUOUS
 62
     7
 10
-110.15353
 20
115.54098
 11
-110.15353
 21
113.09364
  0
LINE
  8
0
  6
CONTINUOUS
 62
     7
 10
-105.95354
 20
115.54098
 11
-105.95354
 21
113.09364
  0
LINE
  8
0
  6
CONTINUOUS
 62
     7
 10
-41.745747
 20
196.78796
 11
-33.745747
 21
196.78796
  0
LINE
  8
0
  6
CONTINUOUS
 62
     7
 10
-41.745747
 20
166.78796
 11
-33.745747
 21
166.78796
  0
LINE
  8
0
  6
CONTINUOUS
 62
     7
 10
-41.745747
 20
184.83797
 11
-40.945744
 21
184.83797
  0
LINE
  8
0
  6
CONTINUOUS
 62
     7
 10
-41.745747
 20
178.73796
 11
-40.945744
 21
178.73796
  0
LINE
  8
0
  6
CONTINUOUS
 62
     7
 10
-41.745747
 20
196.78796
 11
-41.745747
 21
184.83797
  0
LINE
  8
0
  6
CONTINUOUS
 62
     7
 10
-40.945744
 20
184.83797
 11
-40.945744
 21
178.73796
  0
LINE
  8
0
  6
CONTINUOUS
 62
     7
 10
-41.745747
 20
178.73796
 11
-41.745747
 21
166.78796
  0
LINE
  8
0
  6
CONTINUOUS
 62
     7
 10
-38.545746
 20
196.78796
 11
-38.545746
 21
166.78796
  0
LINE
  8
0
  6
CONTINUOUS
 62
     7
 10
-33.745747
 20
196.78796
 11
-33.745747
 21
166.78796
  0
LINE
  8
0
  6
CENTER
 62
     7
 10
-45.35778
 20
181.78796
 11
-18.498194
 21
181.78796
  0
LINE
  8
0
  6
CONTINUOUS
 62
     7
 10
-40.945744
 20
179.68796
 11
-38.545746
 21
179.68796
  0
LINE
  8
0
  6
CONTINUOUS
 62
     7
 10
-40.945744
 20
183.88797
 11
-38.545746
 21
183.88797
  0
LINE
  8
0
  6
CONTINUOUS
 62
     7
 10
-38.545746
 20
185.78796
 11
-33.745747
 21
185.78796
  0
LINE
  8
0
  6
CONTINUOUS
 62
     7
 10
-38.545746
 20
177.78796
 11
-33.745747
 21
177.78796
  0
LINE
  8
0
  6
CONTINUOUS
 62
     7
 10
-131.58952
 20
101.08512
 11
-136.09401
 21
107.69644
  0
LINE
  8
0
  6
CONTINUOUS
 62
     7
 10
-84.517553
 20
101.08512
 11
-80.013059
 21
107.69643
  0
LINE
  8
0
  6
CONTINUOUS
 62
     7
 10
-26.485744
 20
196.78796
 11
-26.485744
 21
166.78796
  0
LINE
  8
0
  6
CONTINUOUS
 62
     7
 10
-33.745747
 20
196.78796
 11
-26.485744
 21
196.78796
  0
LINE
  8
0
  6
CONTINUOUS
 62
     7
 10
-33.745747
 20
166.78796
 11
-26.485744
 21
166.78796
  0
LINE
  8
0
  6
CONTINUOUS
 62
     7
 10
-114.40896
 20
107.85501
 11
-112.05354
 21
110.21044
  0
LINE
  8
0
  6
CONTINUOUS
 62
     7
 10
-117.17553
 20
107.33351
 11
-112.05354
 21
112.45552
  0
LINE
  8
0
  6
CONTINUOUS
 62
     7
 10
-120.22416
 20
106.52993
 11
-113.99321
 21
112.7609
  0
LINE
  8
0
  6
CONTINUOUS
 62
     7
 10
-123.69497
 20
105.30418
 11
-116.65979
 21
112.33937
  0
LINE
  8
0
  6
CONTINUOUS
 62
     7
 10
-127.93307
 20
103.31113
 11
-119.54144
 21
111.70278
  0
LINE
  8
0
  6
CONTINUOUS
 62
     7
 10
-131.91964
 20
101.56963
 11
-122.71472
 21
110.77456
  0
LINE
  8
0
  6
CONTINUOUS
 62
     7
 10
-132.82941
 20
102.90492
 11
-126.32465
 21
109.40969
  0
LINE
  8
0
  6
CONTINUOUS
 62
     7
 10
-133.73918
 20
104.24021
 11
-130.72549
 21
107.25391
  0
LINE
  8
0
  6
CONTINUOUS
 62
     7
 10
-82.126575
 20
104.59439
 11
-83.963246
 21
106.43106
  0
LINE
  8
0
  6
CONTINUOUS
 62
     7
 10
-83.036357
 20
103.2591
 11
-88.717092
 21
108.93983
  0
LINE
  8
0
  6
CONTINUOUS
 62
     7
 10
-83.94613
 20
101.92381
 11
-92.486176
 21
110.46384
  0
LINE
  8
0
  6
CONTINUOUS
 62
     7
 10
-86.804396
 20
102.53701
 11
-95.756647
 21
111.48925
  0
LINE
  8
0
  6
CONTINUOUS
 62
     7
 10
-91.38711
 20
104.87466
 11
-98.706389
 21
112.19392
  0
LINE
  8
0
  6
CONTINUOUS
 62
     7
 10
-95.011943
 20
106.25442
 11
-101.42462
 21
112.66709
  0
LINE
  8
0
  6
CONTINUOUS
 62
     7
 10
-98.154533
 20
107.15195
 11
-103.96376
 21
112.96117
  0
LINE
  8
0
  6
CONTINUOUS
 62
     7
 10
-100.98699
 20
107.73932
 11
-104.05355
 21
110.80587
  0
LINE
  8
0
  6
CONTINUOUS
 62
     7
 10
-103.59528
 20
108.10255
 11
-104.05354
 21
108.56081
  0
LINE
  8
0
  6
CONTINUOUS
 62
     7
 10
-34.231103
 20
185.78796
 11
-33.745753
 21
186.27332
  0
LINE
  8
0
  6
CONTINUOUS
 62
     7
 10
-36.476165
 20
185.78796
 11
-33.745752
 21
188.51839
  0
LINE
  8
0
  6
CONTINUOUS
 62
     7
 10
-38.545742
 20
185.96344
 11
-33.745743
 21
190.76345
  0
LINE
  8
0
  6
CONTINUOUS
 62
     7
 10
-38.54575
 20
188.20851
 11
-33.745751
 21
193.00852
  0
LINE
  8
0
  6
CONTINUOUS
 62
     7
 10
-38.545746
 20
190.45359
 11
-33.745748
 21
195.25358
  0
LINE
  8
0
  6
CONTINUOUS
 62
     7
 10
-38.545747
 20
192.69864
 11
-34.456435
 21
196.78796
  0
LINE
  8
0
  6
CONTINUOUS
 62
     7
 10
-38.545747
 20
194.94371
 11
-36.701496
 21
196.78796
  0
LINE
  8
0
  6
CONTINUOUS
 62
     7
 10
-35.270564
 20
166.78796
 11
-33.745745
 21
168.31279
  0
LINE
  8
0
  6
CONTINUOUS
 62
     7
 10
-37.515633
 20
166.78796
 11
-33.745753
 21
170.55786
  0
LINE
  8
0
  6
CONTINUOUS
 62
     7
 10
-38.545743
 20
168.00291
 11
-33.745745
 21
172.80292
  0
LINE
  8
0
  6
CONTINUOUS
 62
     7
 10
-38.545751
 20
170.24798
 11
-33.745747
 21
175.048
  0
LINE
  8
0
  6
CONTINUOUS
 62
     7
 10
-38.545745
 20
172.49306
 11
-33.745746
 21
177.29306
  0
LINE
  8
0
  6
CONTINUOUS
 62
     7
 10
-38.545745
 20
174.73811
 11
-35.495902
 21
177.78795
  0
LINE
  8
0
  6
CONTINUOUS
 62
     7
 10
-38.545745
 20
176.98318
 11
-37.740957
 21
177.78796
  0
LINE
  8
0
  6
CONTINUOUS
 62
     7
 10
-177
 20
-0.19999981
 11
-0.20000005
 21
-0.19999981
  0
LINE
  8
0
  6
CONTINUOUS
 62
     7
 10
-177
 20
274.29999
 11
-177
 21
-0.19999981
  0
LINE
  8
0
  6
CONTINUOUS
 62
     7
 10
-177.2
 20
-0.39999962
 11
0
 21
-0.39999962
  0
LINE
  8
0
  6
CONTINUOUS
 62
     7
 10
-177.2
 20
274.29999
 11
-177.2
 21
-0.19999981
  0
LINE
  8
0
  6
CONTINUOUS
 62
     7
 10
0
 20
274.5
 11
0
 21
-0.39999962
  0
LINE
  8
0
  6
CONTINUOUS
 62
     7
 10
-0.20000005
 20
274.29999
 11
-0.20000005
 21
-0.19999981
  0
LINE
  8
0
  6
CONTINUOUS
 62
     7
 10
-177
 20
274.29999
 11
-0.20000005
 21
274.29999
  0
LINE
  8
0
  6
CONTINUOUS
 62
     7
 10
-177.2
 20
274.5
 11
0
 21
274.5
  0
LINE
  8
0
  6
CONTINUOUS
 62
     7
 10
-177.2
 20
274.5
 11
-177.2
 21
-0.39999962
  0
LINE
  8
0
  6
CONTINUOUS
 62
     7
 10
-61.799999
 20
38.5
 11
-61.799999
 21
-0.19999981
  0
LINE
  8
0
  6
CONTINUOUS
 62
     7
 10
-61.799999
 20
12.5
 11
-0.20000005
 21
12.5
  0
LINE
  8
0
  6
CONTINUOUS
 62
     7
 10
-61.799999
 20
25
 11
-0.20000005
 21
25
  0
LINE
  8
0
  6
CONTINUOUS
 62
     7
 10
-61.799999
 20
38.5
 11
-0.20000005
 21
38.5
  0
CIRCLE
  8
0
  6
CONTINUOUS
 62
     7
 10
-108.05354
 20
181.78796
 40
2.0999999
  0
CIRCLE
  8
0
  6
DASHED
 62
     7
 10
-108.05354
 20
181.78796
 40
4
  0
ARC
  8
0
  6
CONTINUOUS
 62
     7
 10
-131.05353
 20
168.78796
 40
2
 50
179.99999
 51
270
  0
ARC
  8
0
  6
CONTINUOUS
 62
     7
 10
-131.05353
 20
194.78796
 40
2
 50
90.000003
 51
180.00001
  0
ARC
  8
0
  6
CONTINUOUS
 62
     7
 10
-85.053535
 20
194.78796
 40
2
 50
0
 51
90.000003
  0
ARC
  8
0
  6
CONTINUOUS
 62
     7
 10
-85.053535
 20
168.78796
 40
2
 50
270
 51
360
  0
ARC
  8
0
  6
CONTINUOUS
 62
     7
 10
-108.05354
 20
66.540985
 40
41.799999
 50
55.732189
 51
124.26781
  0
ARC
  8
0
  6
CONTINUOUS
 62
     7
 10
-108.05354
 20
66.540985
 40
49.799999
 50
55.732189
 51
124.26781
  0
ARC
  8
0
  6
CONTINUOUS
 62
     7
 10
-108.05354
 20
66.540985
 40
46.599998
 50
55.732189
 51
124.26781
  0
TEXT
  8
0
  6
CONTINUOUS
 62
     7
 10
-53.93545
 20
32.202638
 40
4.8000002
 41
0.84448342
  1
ミニシリンダー用当板
  0
TEXT
  8
0
  6
CONTINUOUS
 62
     7
 10
-42.483258
 20
25.873094
 40
4.8000002
 41
0.84892701
  1
Ｒ型（黒）
  0
TEXT
  8
0
  6
CONTINUOUS
 62
     7
 10
-44.925031
 20
15.812313
 40
4.8000002
 41
0.84741096
  1
ＣＰ－０１８
  0
TEXT
  8
0
  6
CONTINUOUS
 62
     7
 10
-45.160863
 20
3.9027972
 40
4.8000002
 41
0.84741096
  1
３７０００５
  0
ENDSEC
  0
EOF
