  0
SECTION
  2
HEADER
  9
$EXTMAX
 10
1.2182922
 20
274.528
 30
0
  9
$EXTMIN
 10
-177.2301
 20
-1.0560455
 30
0
  9
$LIMMAX
 10
1.2182922
 20
274.528
  9
$LIMMIN
 10
-177.2301
 20
-1.0560455
  9
$PLIMMAX
 10
1.2182922
 20
274.528
  9
$PLIMMIN
 10
-177.2301
 20
-1.0560455
  9
$PEXTMAX
 10
1.2182922
 20
274.528
 30
0
  9
$PEXTMIN
 10
-177.2301
 20
-1.0560455
 30
0
  9
$TEXTSIZE
 40
3.2
  9
$DIMSHO
 70
     0
  9
$DIMASZ
 40
1.0
  9
$DIMTAD
 70
     1
  9
$DIMTIH
 70
     0
  9
$DIMTOH
 70
     0
  9
$DIMEXE
 40
2.54
  9
$DIMEXO
 40
2.54
  9
$DIMTVP
 40
1.0
  9
$DIMSAH
 70
     1
  9
$DIMDLE
 40
0.0
  9
$DIMTXT
 40
3.2
  9
$DIMGAP
 40
1.6
  0
ENDSEC
  0
SECTION
  2
TABLES
  0
TABLE
  2
LTYPE
 70
     39
  0
LTYPE
  2
CONTINUOUS
 70
    64
  3
Solid line
 72
    65
 73
     0
 40
0.0
  0
LTYPE
  2
ACAD_ISO02W100
 70
     0
  3
ISO dash __ __ __ __ __ __ __ __ __ __ __ __ __
 72
    65
 73
     2
 40
15.0
 49
12.0
 49
-3.0
  0
LTYPE
  2
ACAD_ISO03W100
 70
     0
  3
ISO dash space __    __    __    __    __    __
 72
    65
 73
     2
 40
30.0
 49
12.0
 49
-18.0
  0
LTYPE
  2
ACAD_ISO04W100
 70
     0
  3
ISO long-dash dot ____ . ____ . ____ . ____ . _
 72
    65
 73
     4
 40
30.0
 49
24.0
 49
-3.0
 49
0.0
 49
-3.0
  0
LTYPE
  2
ACAD_ISO05W100
 70
     0
  3
ISO long-dash double-dot ____ .. ____ .. ____ .
 72
    65
 73
     6
 40
33.0
 49
24.0
 49
-3.0
 49
0.0
 49
-3.0
 49
0.0
 49
-3.0
  0
LTYPE
  2
ACAD_ISO06W100
 70
     0
  3
ISO long-dash triple-dot ____ ... ____ ... ____
 72
    65
 73
     8
 40
36.0
 49
24.0
 49
-3.0
 49
0.0
 49
-3.0
 49
0.0
 49
-3.0
 49
0.0
 49
-3.0
  0
LTYPE
  2
ACAD_ISO07W100
 70
     0
  3
ISO dot . . . . . . . . . . . . . . . . . . . .
 72
    65
 73
     2
 40
3.0
 49
0.0
 49
-3.0
  0
LTYPE
  2
ACAD_ISO08W100
 70
     0
  3
ISO long-dash short-dash ____ __ ____ __ ____ _
 72
    65
 73
     4
 40
36.0
 49
24.0
 49
-3.0
 49
6.0
 49
-3.0
  0
LTYPE
  2
ACAD_ISO09W100
 70
     0
  3
ISO long-dash double-short-dash ____ __ __ ____
 72
    65
 73
     6
 40
45.0
 49
24.0
 49
-3.0
 49
6.0
 49
-3.0
 49
6.0
 49
-3.0
  0
LTYPE
  2
ACAD_ISO10W100
 70
     0
  3
ISO dash dot __ . __ . __ . __ . __ . __ . __ .
 72
    65
 73
     4
 40
18.0
 49
12.0
 49
-3.0
 49
0.0
 49
-3.0
  0
LTYPE
  2
ACAD_ISO11W100
 70
     0
  3
ISO double-dash dot __ __ . __ __ . __ __ . __ 
 72
    65
 73
     6
 40
33.0
 49
12.0
 49
-3.0
 49
12.0
 49
-3.0
 49
0.0
 49
-3.0
  0
LTYPE
  2
ACAD_ISO12W100
 70
     0
  3
ISO dash double-dot __ . . __ . . __ . . __ . .
 72
    65
 73
     6
 40
21.0
 49
12.0
 49
-3.0
 49
0.0
 49
-3.0
 49
0.0
 49
-3.0
  0
LTYPE
  2
ACAD_ISO13W100
 70
     0
  3
ISO double-dash double-dot __ __ . . __ __ . . 
 72
    65
 73
     8
 40
36.0
 49
12.0
 49
-3.0
 49
12.0
 49
-3.0
 49
0.0
 49
-3.0
 49
0.0
 49
-3.0
  0
LTYPE
  2
ACAD_ISO14W100
 70
     0
  3
ISO dash triple-dot __ . . . __ . . . __ . . . 
 72
    65
 73
     8
 40
24.0
 49
12.0
 49
-3.0
 49
0.0
 49
-3.0
 49
0.0
 49
-3.0
 49
0.0
 49
-3.0
  0
LTYPE
  2
ACAD_ISO15W100
 70
     0
  3
ISO double-dash triple-dot __ __ . . . __ __ . 
 72
    65
 73
    10
 40
39.0
 49
12.0
 49
-3.0
 49
12.0
 49
-3.0
 49
0.0
 49
-3.0
 49
0.0
 49
-3.0
 49
0.0
 49
-3.0
  0
LTYPE
  2
BORDER
 70
    64
  3
Border __ __ . __ __ . __ __ . __ __ . __ __ .
 72
    65
 73
     6
 40
3.5
 49
1.0
 49
-0.5
 49
1.0
 49
-0.5
 49
0.0
 49
-0.5
  0
LTYPE
  2
BORDER2
 70
    64
  3
Border (.5x) __.__.__.__.__.__.__.__.__.__.__.
 72
    65
 73
     6
 40
1.75
 49
0.5
 49
-0.25
 49
0.5
 49
-0.25
 49
0.0
 49
-0.25
  0
LTYPE
  2
BORDERX2
 70
    64
  3
Border (2x) ____  ____  .  ____  ____  .  ___
 72
    65
 73
     6
 40
7.0
 49
2.0
 49
-1.0
 49
2.0
 49
-1.0
 49
0.0
 49
-1.0
  0
LTYPE
  2
CENTER
 70
    64
  3
Center ____ _ ____ _ ____ _ ____ _ ____ _ ____
 72
    65
 73
     4
 40
12.0
 49
7.5
 49
-1.5
 49
1.5
 49
-1.5
  0
LTYPE
  2
CENTER2
 70
    64
  3
Center (.5x) ___ _ ___ _ ___ _ ___ _ ___ _ ___
 72
    65
 73
     4
 40
6.0
 49
3.75
 49
-0.75
 49
0.75
 49
-0.75
  0
LTYPE
  2
CENTERX2
 70
    64
  3
Center (2x) ________  __  ________  __  _____
 72
    65
 73
     4
 40
24.0
 49
15.0
 49
-3.0
 49
3.0
 49
-3.0
  0
LTYPE
  2
DASHDOT
 70
    64
  3
Dash dot __ . __ . __ . __ . __ . __ . __ . __
 72
    65
 73
     4
 40
6.0
 49
3.0
 49
-1.5
 49
0.0
 49
-1.5
  0
LTYPE
  2
DASHDOT2
 70
    64
  3
Dash dot (.5x) _._._._._._._._._._._._._._._.
 72
    65
 73
     4
 40
3.0
 49
1.5
 49
-0.75
 49
0.0
 49
-0.75
  0
LTYPE
  2
DASHDOTX2
 70
    64
  3
Dash dot (2x) ____  .  ____  .  ____  .  ___
 72
    65
 73
     4
 40
12.0
 49
6.0
 49
-3.0
 49
0.0
 49
-3.0
  0
LTYPE
  2
DASHED
 70
    64
  3
Dashed __ __ __ __ __ __ __ __ __ __ __ __ __ _
 72
    65
 73
     2
 40
4.5
 49
3.0
 49
-1.5
  0
LTYPE
  2
DASHED2
 70
    64
  3
Dashed (.5x) _ _ _ _ _ _ _ _ _ _ _ _ _ _ _ _ _
 72
    65
 73
     2
 40
2.25
 49
1.5
 49
-0.75
  0
LTYPE
  2
DASHEDX2
 70
    64
  3
Dashed (2x) ____  ____  ____  ____  ____  ___
 72
    65
 73
     2
 40
9.0
 49
6.0
 49
-3.0
  0
LTYPE
  2
DIVIDE
 70
    64
  3
Divide ____ . . ____ . . ____ . . ____ . . ____
 72
    65
 73
     6
 40
7.5
 49
3.0
 49
-1.5
 49
0.0
 49
-1.5
 49
0.0
 49
-1.5
  0
LTYPE
  2
DIVIDE2
 70
    64
  3
Divide (.5x) __..__..__..__..__..__..__..__.._
 72
    65
 73
     6
 40
3.75
 49
1.5
 49
-0.75
 49
0.0
 49
-0.75
 49
0.0
 49
-0.75
  0
LTYPE
  2
DIVIDEX2
 70
    64
  3
Divide (2x) ________  .  .  ________  .  .  _
 72
    65
 73
     6
 40
15.0
 49
6.0
 49
-3.0
 49
0.0
 49
-3.0
 49
0.0
 49
-3.0
  0
LTYPE
  2
DOT
 70
    64
  3
Dot . . . . . . . . . . . . . . . . . . . . . .
 72
    65
 73
     2
 40
1.5
 49
0.0
 49
-1.5
  0
LTYPE
  2
DOT2
 70
    64
  3
Dot (.5x) .....................................
 72
    65
 73
     2
 40
0.75
 49
0.0
 49
-0.75
  0
LTYPE
  2
DOTX2
 70
    64
  3
Dot (2x) .  .  .  .  .  .  .  .  .  .  .  .  . 
 72
    65
 73
     2
 40
3.0
 49
0.0
 49
-3.0
  0
LTYPE
  2
HIDDEN
 70
    64
  3
Hidden __ __ __ __ __ __ __ __ __ __ __ __ __ _
 72
    65
 73
     2
 40
4.5
 49
3.0
 49
-1.5
  0
LTYPE
  2
HIDDEN2
 70
    64
  3
Hidden (.5x) _ _ _ _ _ _ _ _ _ _ _ _ _ _ _ _ _
 72
    65
 73
     2
 40
2.25
 49
1.5
 49
-0.75
  0
LTYPE
  2
HIDDENX2
 70
    64
  3
Hidden (2x) ____ ____ ____ ____ ____ ____ ____
 72
    65
 73
     2
 40
9.0
 49
6.0
 49
-3.0
  0
LTYPE
  2
PHANTOM
 70
    64
  3
Phantom ______  __  __  ______  __  __  ______
 72
    65
 73
     6
 40
15.0
 49
7.5
 49
-1.5
 49
1.5
 49
-1.5
 49
1.5
 49
-1.5
  0
LTYPE
  2
PHANTOM2
 70
    64
  3
Phantom (.5x) ___ _ _ ___ _ _ ___ _ _ ___ _ _
 72
    65
 73
     6
 40
7.5
 49
3.75
 49
-0.75
 49
0.75
 49
-0.75
 49
0.75
 49
-0.75
  0
LTYPE
  2
PHANTOMX2
 70
    64
  3
Phantom (2x) ____________    ____    ____   _
 72
    65
 73
     6
 40
30.0
 49
15.0
 49
-3.0
 49
3.0
 49
-3.0
 49
3.0
 49
-3.0
  0
ENDTAB
  0
TABLE
  2
LAYER
 70
     1
  0
LAYER
  2
0
 70
     0
 62
     7
  6
CONTINUOUS
  0
ENDTAB
  0
TABLE
  2
STYLE
 70
     1
  0
STYLE
  2
STANDARD
 70
     0
 40
0.0
 41
1.0
 50
0.0
 71
     0
 42
0.2
  3
txt
  4
BIGFONT
  0
ENDTAB
  0
TABLE
  2
DIMSTYLE
 70
     0
  0
ENDTAB
  0
ENDSEC
  0
SECTION
  2
BLOCKS
  0
BLOCK
  8
0
  2
KOZU0001
 70
    64
 10
0
 20
0
  0
LINE
  8
0
  6
CONTINUOUS
 62
     7
 10
0
 20
0
 11
7.1505554
 21
12.899041
  0
LINE
  8
0
  6
CONTINUOUS
 62
     7
 10
0
 20
0
 11
0.5799014
 21
3.1086515
  0
LINE
  8
0
  6
CONTINUOUS
 62
     7
 10
0
 20
0
 11
2.329112
 21
2.1389803
  0
TEXT
  8
0
  6
CONTINUOUS
 62
     7
 10
8.2748537
 20
18.499047
 40
3.2
 41
0.84741101
  1
セレーション
  0
TEXT
  8
0
  6
CONTINUOUS
 62
     7
 10
8.2748537
 20
13.699047
 40
3.2
 41
0.84448347
  1
Ｐ＝１．５深０．７５
  0
LINE
  8
0
  6
CONTINUOUS
 62
     7
 10
0
 20
0
 11
7.1505554
 21
12.899041
  0
LINE
  8
0
  6
CONTINUOUS
 62
     7
 10
7.1505494
 20
12.899047
 11
40.979643
 21
12.899047
  0
ENDBLK
  8
0
  0
ENDSEC
  0
SECTION
  2
ENTITIES
  0
LINE
  8
0
  6
CENTER
 62
     7
 10
-99.425003
 20
152.98
 11
-130.50499
 21
152.98
  0
LINE
  8
0
  6
CENTER
 62
     7
 10
-114.965
 20
168.51999
 11
-114.965
 21
137.44
  0
LINE
  8
0
  6
CONTINUOUS
 62
     7
 10
-57.144455
 20
165.98
 11
-57.144455
 21
139.98
  0
LINE
  8
0
  6
CONTINUOUS
 62
     7
 10
-60.344452
 20
165.98
 11
-60.344452
 21
139.98
  0
LINE
  8
0
  6
CENTER
 62
     7
 10
-65.399376
 20
152.98
 11
-51.93082
 21
152.98
  0
LINE
  8
0
  6
CONTINUOUS
 62
     7
 10
-60.344452
 20
165.98
 11
-57.144455
 21
165.98
  0
LINE
  8
0
  6
CONTINUOUS
 62
     7
 10
-60.344452
 20
139.98
 11
-57.144455
 21
139.98
  0
LINE
  8
0
  6
CONTINUOUS
 62
     7
 10
-57.644455
 20
155.23
 11
-57.644455
 21
150.73
  0
LINE
  8
0
  6
CONTINUOUS
 62
     7
 10
-57.644455
 20
150.73
 11
-57.144455
 21
150.73
  0
LINE
  8
0
  6
CONTINUOUS
 62
     7
 10
-57.644455
 20
155.23
 11
-57.144455
 21
155.23
  0
LINE
  8
0
  6
CONTINUOUS
 62
     7
 10
-57.644465
 20
155.23001
 11
-60.344463
 21
157.93001
  0
LINE
  8
0
  6
CONTINUOUS
 62
     7
 10
-57.644457
 20
150.72999
 11
-60.344452
 21
148.02999
  0
LINE
  8
0
  6
CONTINUOUS
 62
     7
 10
-124.15739
 20
143.78761
 11
-118.46518
 21
149.47982
  0
LINE
  8
0
  6
CONTINUOUS
 62
     7
 10
-111.46482
 20
156.48018
 11
-105.77261
 21
162.17239
  0
LINE
  8
0
  6
CONTINUOUS
 62
     7
 10
-125.15665
 20
144.90967
 11
-119.36126
 21
150.70506
  0
LINE
  8
0
  6
CONTINUOUS
 62
     7
 10
-126.03059
 20
146.15705
 11
-119.87043
 21
152.31721
  0
LINE
  8
0
  6
CONTINUOUS
 62
     7
 10
-126.77107
 20
147.53789
 11
-119.60515
 21
154.70382
  0
LINE
  8
0
  6
CONTINUOUS
 62
     7
 10
-127.36239
 20
149.06789
 11
-111.05289
 21
165.37739
  0
LINE
  8
0
  6
CONTINUOUS
 62
     7
 10
-123.03533
 20
142.78835
 11
-117.23994
 21
148.58374
  0
LINE
  8
0
  6
CONTINUOUS
 62
     7
 10
-127.77663
 20
150.77497
 11
-112.75997
 21
165.79163
  0
LINE
  8
0
  6
CONTINUOUS
 62
     7
 10
-127.96221
 20
152.71071
 11
-114.69571
 21
165.97721
  0
LINE
  8
0
  6
CONTINUOUS
 62
     7
 10
-127.80949
 20
154.98475
 11
-116.96975
 21
165.82449
  0
LINE
  8
0
  6
CONTINUOUS
 62
     7
 10
-126.98582
 20
157.92975
 11
-119.91475
 21
165.00081
  0
LINE
  8
0
  6
CONTINUOUS
 62
     7
 10
-121.78795
 20
141.91441
 11
-115.62779
 21
148.07457
  0
LINE
  8
0
  6
CONTINUOUS
 62
     7
 10
-120.40711
 20
141.17393
 11
-113.24119
 21
148.33986
  0
LINE
  8
0
  6
CONTINUOUS
 62
     7
 10
-118.87711
 20
140.58259
 11
-102.56759
 21
156.89211
  0
LINE
  8
0
  6
CONTINUOUS
 62
     7
 10
-117.17003
 20
140.16837
 11
-102.15337
 21
155.18503
  0
LINE
  8
0
  6
CONTINUOUS
 62
     7
 10
-115.23429
 20
139.98279
 11
-101.96779
 21
153.24929
  0
LINE
  8
0
  6
CONTINUOUS
 62
     7
 10
-112.96025
 20
140.13551
 11
-102.12051
 21
150.97525
  0
LINE
  8
0
  6
CONTINUOUS
 62
     7
 10
-110.01526
 20
140.95919
 11
-102.94418
 21
148.03026
  0
LINE
  8
0
  6
CONTINUOUS
 62
     7
 10
-112.69006
 20
157.37626
 11
-106.89467
 21
163.17165
  0
LINE
  8
0
  6
CONTINUOUS
 62
     7
 10
-114.30221
 20
157.88543
 11
-108.14205
 21
164.04559
  0
LINE
  8
0
  6
CONTINUOUS
 62
     7
 10
-116.68882
 20
157.62014
 11
-109.52289
 21
164.78607
  0
LINE
  8
0
  6
CONTINUOUS
 62
     7
 10
-110.56874
 20
155.25494
 11
-104.77335
 21
161.05033
  0
LINE
  8
0
  6
CONTINUOUS
 62
     7
 10
-110.05957
 20
153.64279
 11
-103.89941
 21
159.80295
  0
LINE
  8
0
  6
CONTINUOUS
 62
     7
 10
-110.32485
 20
151.25618
 11
-103.15892
 21
158.42211
  0
LINE
  8
0
  6
CONTINUOUS
 62
     7
 10
-177
 20
-0.19999981
 11
0
 21
-0.19999981
  0
LINE
  8
0
  6
CONTINUOUS
 62
     7
 10
-177
 20
274.29999
 11
-177
 21
-0.19999981
  0
LINE
  8
0
  6
CONTINUOUS
 62
     7
 10
-177
 20
-0.39999962
 11
-1.6000032
 21
-0.39999962
  0
LINE
  8
0
  6
CONTINUOUS
 62
     7
 10
0
 20
274.29999
 11
0
 21
0
  0
LINE
  8
0
  6
CONTINUOUS
 62
     7
 10
-0.20000005
 20
274.29999
 11
-0.20000005
 21
0
  0
LINE
  8
0
  6
CONTINUOUS
 62
     7
 10
-177
 20
274.29999
 11
0
 21
274.29999
  0
LINE
  8
0
  6
CONTINUOUS
 62
     7
 10
-177
 20
274.5
 11
0
 21
274.5
  0
LINE
  8
0
  6
CONTINUOUS
 62
     7
 10
-177.2
 20
274.29999
 11
-177.2
 21
-0.19999981
  0
LINE
  8
0
  6
CONTINUOUS
 62
     7
 10
-61.799999
 20
38.299999
 11
-61.799999
 21
0
  0
LINE
  8
0
  6
CONTINUOUS
 62
     7
 10
-61.799999
 20
12.3
 11
0
 21
12.3
  0
LINE
  8
0
  6
CONTINUOUS
 62
     7
 10
-61.799999
 20
24.799999
 11
0
 21
24.799999
  0
LINE
  8
0
  6
CONTINUOUS
 62
     7
 10
-61.799999
 20
38.299999
 11
0
 21
38.299999
  0
CIRCLE
  8
0
  6
CONTINUOUS
 62
     7
 10
-114.965
 20
152.98
 40
4.9499998
  0
CIRCLE
  8
0
  6
CONTINUOUS
 62
     7
 10
-114.965
 20
152.98
 40
2.25
  0
CIRCLE
  8
0
  6
CONTINUOUS
 62
     7
 10
-114.965
 20
152.98
 40
13
  0
TEXT
  8
0
  6
CONTINUOUS
 62
     7
 10
-55.954117
 20
31.980772
 40
4.8000002
 41
0.84448342
  1
ミニシリンダー　ツメ
  0
TEXT
  8
0
  6
CONTINUOUS
 62
     7
 10
-43.784573
 20
25.707597
 40
4.8000002
 41
0.84892701
  1
（%%C２５）
  0
TEXT
  8
0
  6
CONTINUOUS
 62
     7
 10
-44.658664
 20
15.280567
 40
4.8000002
 41
0.84741096
  1
ＣＰ－０１３
  0
TEXT
  8
0
  6
CONTINUOUS
 62
     7
 10
-44.48912
 20
2.9037652
 40
4.8000002
 41
0.84741096
  1
３７００７２
  0
INSERT
  8
0
  6
CONTINUOUS
 62
     7
  2
KOZU0001
 10
-111.27536
 20
159.78714
  0
ENDSEC
  0
EOF
