  0
SECTION
  2
HEADER
  9
$EXTMAX
 10
1.2182922
 20
274.528
 30
0
  9
$EXTMIN
 10
-177.2301
 20
-1.0560455
 30
0
  9
$LIMMAX
 10
1.2182922
 20
274.528
  9
$LIMMIN
 10
-177.2301
 20
-1.0560455
  9
$PLIMMAX
 10
1.2182922
 20
274.528
  9
$PLIMMIN
 10
-177.2301
 20
-1.0560455
  9
$PEXTMAX
 10
1.2182922
 20
274.528
 30
0
  9
$PEXTMIN
 10
-177.2301
 20
-1.0560455
 30
0
  9
$TEXTSIZE
 40
3.2
  9
$DIMSHO
 70
     0
  9
$DIMASZ
 40
1.0
  9
$DIMTAD
 70
     1
  9
$DIMTIH
 70
     0
  9
$DIMTOH
 70
     0
  9
$DIMEXE
 40
2.54
  9
$DIMEXO
 40
2.54
  9
$DIMTVP
 40
1.0
  9
$DIMSAH
 70
     1
  9
$DIMDLE
 40
0.0
  9
$DIMTXT
 40
3.2
  9
$DIMGAP
 40
1.6
  0
ENDSEC
  0
SECTION
  2
TABLES
  0
TABLE
  2
LTYPE
 70
     39
  0
LTYPE
  2
CONTINUOUS
 70
    64
  3
Solid line
 72
    65
 73
     0
 40
0.0
  0
LTYPE
  2
ACAD_ISO02W100
 70
     0
  3
ISO dash __ __ __ __ __ __ __ __ __ __ __ __ __
 72
    65
 73
     2
 40
15.0
 49
12.0
 49
-3.0
  0
LTYPE
  2
ACAD_ISO03W100
 70
     0
  3
ISO dash space __    __    __    __    __    __
 72
    65
 73
     2
 40
30.0
 49
12.0
 49
-18.0
  0
LTYPE
  2
ACAD_ISO04W100
 70
     0
  3
ISO long-dash dot ____ . ____ . ____ . ____ . _
 72
    65
 73
     4
 40
30.0
 49
24.0
 49
-3.0
 49
0.0
 49
-3.0
  0
LTYPE
  2
ACAD_ISO05W100
 70
     0
  3
ISO long-dash double-dot ____ .. ____ .. ____ .
 72
    65
 73
     6
 40
33.0
 49
24.0
 49
-3.0
 49
0.0
 49
-3.0
 49
0.0
 49
-3.0
  0
LTYPE
  2
ACAD_ISO06W100
 70
     0
  3
ISO long-dash triple-dot ____ ... ____ ... ____
 72
    65
 73
     8
 40
36.0
 49
24.0
 49
-3.0
 49
0.0
 49
-3.0
 49
0.0
 49
-3.0
 49
0.0
 49
-3.0
  0
LTYPE
  2
ACAD_ISO07W100
 70
     0
  3
ISO dot . . . . . . . . . . . . . . . . . . . .
 72
    65
 73
     2
 40
3.0
 49
0.0
 49
-3.0
  0
LTYPE
  2
ACAD_ISO08W100
 70
     0
  3
ISO long-dash short-dash ____ __ ____ __ ____ _
 72
    65
 73
     4
 40
36.0
 49
24.0
 49
-3.0
 49
6.0
 49
-3.0
  0
LTYPE
  2
ACAD_ISO09W100
 70
     0
  3
ISO long-dash double-short-dash ____ __ __ ____
 72
    65
 73
     6
 40
45.0
 49
24.0
 49
-3.0
 49
6.0
 49
-3.0
 49
6.0
 49
-3.0
  0
LTYPE
  2
ACAD_ISO10W100
 70
     0
  3
ISO dash dot __ . __ . __ . __ . __ . __ . __ .
 72
    65
 73
     4
 40
18.0
 49
12.0
 49
-3.0
 49
0.0
 49
-3.0
  0
LTYPE
  2
ACAD_ISO11W100
 70
     0
  3
ISO double-dash dot __ __ . __ __ . __ __ . __ 
 72
    65
 73
     6
 40
33.0
 49
12.0
 49
-3.0
 49
12.0
 49
-3.0
 49
0.0
 49
-3.0
  0
LTYPE
  2
ACAD_ISO12W100
 70
     0
  3
ISO dash double-dot __ . . __ . . __ . . __ . .
 72
    65
 73
     6
 40
21.0
 49
12.0
 49
-3.0
 49
0.0
 49
-3.0
 49
0.0
 49
-3.0
  0
LTYPE
  2
ACAD_ISO13W100
 70
     0
  3
ISO double-dash double-dot __ __ . . __ __ . . 
 72
    65
 73
     8
 40
36.0
 49
12.0
 49
-3.0
 49
12.0
 49
-3.0
 49
0.0
 49
-3.0
 49
0.0
 49
-3.0
  0
LTYPE
  2
ACAD_ISO14W100
 70
     0
  3
ISO dash triple-dot __ . . . __ . . . __ . . . 
 72
    65
 73
     8
 40
24.0
 49
12.0
 49
-3.0
 49
0.0
 49
-3.0
 49
0.0
 49
-3.0
 49
0.0
 49
-3.0
  0
LTYPE
  2
ACAD_ISO15W100
 70
     0
  3
ISO double-dash triple-dot __ __ . . . __ __ . 
 72
    65
 73
    10
 40
39.0
 49
12.0
 49
-3.0
 49
12.0
 49
-3.0
 49
0.0
 49
-3.0
 49
0.0
 49
-3.0
 49
0.0
 49
-3.0
  0
LTYPE
  2
BORDER
 70
    64
  3
Border __ __ . __ __ . __ __ . __ __ . __ __ .
 72
    65
 73
     6
 40
3.5
 49
1.0
 49
-0.5
 49
1.0
 49
-0.5
 49
0.0
 49
-0.5
  0
LTYPE
  2
BORDER2
 70
    64
  3
Border (.5x) __.__.__.__.__.__.__.__.__.__.__.
 72
    65
 73
     6
 40
1.75
 49
0.5
 49
-0.25
 49
0.5
 49
-0.25
 49
0.0
 49
-0.25
  0
LTYPE
  2
BORDERX2
 70
    64
  3
Border (2x) ____  ____  .  ____  ____  .  ___
 72
    65
 73
     6
 40
7.0
 49
2.0
 49
-1.0
 49
2.0
 49
-1.0
 49
0.0
 49
-1.0
  0
LTYPE
  2
CENTER
 70
    64
  3
Center ____ _ ____ _ ____ _ ____ _ ____ _ ____
 72
    65
 73
     4
 40
12.0
 49
7.5
 49
-1.5
 49
1.5
 49
-1.5
  0
LTYPE
  2
CENTER2
 70
    64
  3
Center (.5x) ___ _ ___ _ ___ _ ___ _ ___ _ ___
 72
    65
 73
     4
 40
6.0
 49
3.75
 49
-0.75
 49
0.75
 49
-0.75
  0
LTYPE
  2
CENTERX2
 70
    64
  3
Center (2x) ________  __  ________  __  _____
 72
    65
 73
     4
 40
24.0
 49
15.0
 49
-3.0
 49
3.0
 49
-3.0
  0
LTYPE
  2
DASHDOT
 70
    64
  3
Dash dot __ . __ . __ . __ . __ . __ . __ . __
 72
    65
 73
     4
 40
6.0
 49
3.0
 49
-1.5
 49
0.0
 49
-1.5
  0
LTYPE
  2
DASHDOT2
 70
    64
  3
Dash dot (.5x) _._._._._._._._._._._._._._._.
 72
    65
 73
     4
 40
3.0
 49
1.5
 49
-0.75
 49
0.0
 49
-0.75
  0
LTYPE
  2
DASHDOTX2
 70
    64
  3
Dash dot (2x) ____  .  ____  .  ____  .  ___
 72
    65
 73
     4
 40
12.0
 49
6.0
 49
-3.0
 49
0.0
 49
-3.0
  0
LTYPE
  2
DASHED
 70
    64
  3
Dashed __ __ __ __ __ __ __ __ __ __ __ __ __ _
 72
    65
 73
     2
 40
4.5
 49
3.0
 49
-1.5
  0
LTYPE
  2
DASHED2
 70
    64
  3
Dashed (.5x) _ _ _ _ _ _ _ _ _ _ _ _ _ _ _ _ _
 72
    65
 73
     2
 40
2.25
 49
1.5
 49
-0.75
  0
LTYPE
  2
DASHEDX2
 70
    64
  3
Dashed (2x) ____  ____  ____  ____  ____  ___
 72
    65
 73
     2
 40
9.0
 49
6.0
 49
-3.0
  0
LTYPE
  2
DIVIDE
 70
    64
  3
Divide ____ . . ____ . . ____ . . ____ . . ____
 72
    65
 73
     6
 40
7.5
 49
3.0
 49
-1.5
 49
0.0
 49
-1.5
 49
0.0
 49
-1.5
  0
LTYPE
  2
DIVIDE2
 70
    64
  3
Divide (.5x) __..__..__..__..__..__..__..__.._
 72
    65
 73
     6
 40
3.75
 49
1.5
 49
-0.75
 49
0.0
 49
-0.75
 49
0.0
 49
-0.75
  0
LTYPE
  2
DIVIDEX2
 70
    64
  3
Divide (2x) ________  .  .  ________  .  .  _
 72
    65
 73
     6
 40
15.0
 49
6.0
 49
-3.0
 49
0.0
 49
-3.0
 49
0.0
 49
-3.0
  0
LTYPE
  2
DOT
 70
    64
  3
Dot . . . . . . . . . . . . . . . . . . . . . .
 72
    65
 73
     2
 40
1.5
 49
0.0
 49
-1.5
  0
LTYPE
  2
DOT2
 70
    64
  3
Dot (.5x) .....................................
 72
    65
 73
     2
 40
0.75
 49
0.0
 49
-0.75
  0
LTYPE
  2
DOTX2
 70
    64
  3
Dot (2x) .  .  .  .  .  .  .  .  .  .  .  .  . 
 72
    65
 73
     2
 40
3.0
 49
0.0
 49
-3.0
  0
LTYPE
  2
HIDDEN
 70
    64
  3
Hidden __ __ __ __ __ __ __ __ __ __ __ __ __ _
 72
    65
 73
     2
 40
4.5
 49
3.0
 49
-1.5
  0
LTYPE
  2
HIDDEN2
 70
    64
  3
Hidden (.5x) _ _ _ _ _ _ _ _ _ _ _ _ _ _ _ _ _
 72
    65
 73
     2
 40
2.25
 49
1.5
 49
-0.75
  0
LTYPE
  2
HIDDENX2
 70
    64
  3
Hidden (2x) ____ ____ ____ ____ ____ ____ ____
 72
    65
 73
     2
 40
9.0
 49
6.0
 49
-3.0
  0
LTYPE
  2
PHANTOM
 70
    64
  3
Phantom ______  __  __  ______  __  __  ______
 72
    65
 73
     6
 40
15.0
 49
7.5
 49
-1.5
 49
1.5
 49
-1.5
 49
1.5
 49
-1.5
  0
LTYPE
  2
PHANTOM2
 70
    64
  3
Phantom (.5x) ___ _ _ ___ _ _ ___ _ _ ___ _ _
 72
    65
 73
     6
 40
7.5
 49
3.75
 49
-0.75
 49
0.75
 49
-0.75
 49
0.75
 49
-0.75
  0
LTYPE
  2
PHANTOMX2
 70
    64
  3
Phantom (2x) ____________    ____    ____   _
 72
    65
 73
     6
 40
30.0
 49
15.0
 49
-3.0
 49
3.0
 49
-3.0
 49
3.0
 49
-3.0
  0
ENDTAB
  0
TABLE
  2
LAYER
 70
     1
  0
LAYER
  2
0
 70
     0
 62
     7
  6
CONTINUOUS
  0
ENDTAB
  0
TABLE
  2
STYLE
 70
     1
  0
STYLE
  2
STANDARD
 70
     0
 40
0.0
 41
1.0
 50
0.0
 71
     0
 42
0.2
  3
txt
  4
BIGFONT
  0
ENDTAB
  0
TABLE
  2
DIMSTYLE
 70
     0
  0
ENDTAB
  0
ENDSEC
  0
SECTION
  2
BLOCKS
  0
BLOCK
  8
0
  2
KOZU0001
 70
    64
 10
0
 20
0
  0
LINE
  8
0
  6
CONTINUOUS
 62
     7
 10
0
 20
0
 11
6.6503792
 21
13.818393
  0
LINE
  8
0
  6
CONTINUOUS
 62
     7
 10
0
 20
0
 11
0.3999068
 21
3.1368893
  0
LINE
  8
0
  6
CONTINUOUS
 62
     7
 10
0
 20
0
 11
2.202059
 21
2.2695673
  0
TEXT
  8
0
  6
CONTINUOUS
 62
     7
 10
9.291861
 20
14.61839
 40
3.2
 41
0.85127004
  1
２－Ｍ４
  0
LINE
  8
0
  6
CONTINUOUS
 62
     7
 10
0
 20
0
 11
6.6503792
 21
13.818393
  0
LINE
  8
0
  6
CONTINUOUS
 62
     7
 10
6.650383
 20
13.81839
 11
23.005859
 21
13.81839
  0
ENDBLK
  8
0
  0
BLOCK
  8
0
  2
KOZU0002
 70
    64
 10
0
 20
0
  0
LINE
  8
0
  6
CONTINUOUS
 62
     7
 10
0
 20
0
 11
12.488208
 21
22.397454
  0
LINE
  8
0
  6
CONTINUOUS
 62
     7
 10
0
 20
0
 11
0.58755741
 21
3.1072135
  0
LINE
  8
0
  6
CONTINUOUS
 62
     7
 10
0
 20
0
 11
2.3343741
 21
2.1332364
  0
TEXT
  8
0
  6
CONTINUOUS
 62
     7
 10
13.873264
 20
23.19746
 40
3.2
 41
0.84741101
  1
%%C１０リーマ
  0
TEXT
  8
0
  6
CONTINUOUS
 62
     7
 10
13.873264
 20
17.58146
 40
3.2
 41
0.84289512
  1
ブシュ打込み（ＭＢ０８１０ＤＵ）
  0
LINE
  8
0
  6
CONTINUOUS
 62
     7
 10
0
 20
0
 11
12.488208
 21
22.397454
  0
LINE
  8
0
  6
CONTINUOUS
 62
     7
 10
12.488203
 20
22.39746
 11
65.517305
 21
22.39746
  0
ENDBLK
  8
0
  0
ENDSEC
  0
SECTION
  2
ENTITIES
  0
LINE
  8
0
  6
CONTINUOUS
 62
     7
 10
-142.44501
 20
116.43
 11
-92.445
 21
116.43
  0
LINE
  8
0
  6
CONTINUOUS
 62
     7
 10
-142.44501
 20
125.43
 11
-127.445
 21
125.43
  0
LINE
  8
0
  6
CENTER
 62
     7
 10
-125.07227
 20
131.92999
 11
-109.48137
 21
131.92999
  0
LINE
  8
0
  6
CONTINUOUS
 62
     7
 10
-124.445
 20
141.42999
 11
-110.445
 21
141.42999
  0
LINE
  8
0
  6
CENTER
 62
     7
 10
-117.445
 20
145.12131
 11
-117.445
 21
112.38316
  0
LINE
  8
0
  6
CONTINUOUS
 62
     7
 10
-142.44501
 20
116.43
 11
-142.44501
 21
125.43
  0
LINE
  8
0
  6
CONTINUOUS
 62
     7
 10
-92.445
 20
125.43
 11
-92.445
 21
116.43
  0
LINE
  8
0
  6
CONTINUOUS
 62
     7
 10
-127.445
 20
138.43001
 11
-127.445
 21
125.43
  0
LINE
  8
0
  6
CONTINUOUS
 62
     7
 10
-107.445
 20
138.42999
 11
-107.445
 21
125.43
  0
LINE
  8
0
  6
CENTER
 62
     7
 10
-98.445
 20
129.56989
 11
-98.445
 21
113.887
  0
LINE
  8
0
  6
CENTER
 62
     7
 10
-136.44501
 20
113.67216
 11
-136.44501
 21
129.78471
  0
LINE
  8
0
  6
CONTINUOUS
 62
     7
 10
-107.445
 20
125.43
 11
-92.445
 21
125.43
  0
LINE
  8
0
  6
CONTINUOUS
 62
     7
 10
-107.44502
 20
138.43003
 11
-110.44502
 21
141.43002
  0
LINE
  8
0
  6
CONTINUOUS
 62
     7
 10
-124.44499
 20
141.43
 11
-127.44499
 21
138.43001
  0
LINE
  8
0
  6
CENTER
 62
     7
 10
-117.445
 20
209.72705
 11
-117.445
 21
184.44243
  0
LINE
  8
0
  6
CONTINUOUS
 62
     7
 10
-142.44501
 20
187.28
 11
-92.445
 21
187.28
  0
LINE
  8
0
  6
CONTINUOUS
 62
     7
 10
-142.44501
 20
207.28
 11
-92.445
 21
207.28
  0
LINE
  8
0
  6
CONTINUOUS
 62
     7
 10
-142.44501
 20
207.28
 11
-142.44501
 21
187.28
  0
LINE
  8
0
  6
CONTINUOUS
 62
     7
 10
-92.445
 20
207.28
 11
-92.445
 21
187.28
  0
LINE
  8
0
  6
CENTER
 62
     7
 10
-136.44501
 20
200.8721
 11
-136.44501
 21
193.51076
  0
LINE
  8
0
  6
CENTER
 62
     7
 10
-98.445
 20
200.23198
 11
-98.445
 21
194.15086
  0
LINE
  8
0
  6
CENTER
 62
     7
 10
-145.11774
 20
197.28
 11
-88.545006
 21
197.28
  0
LINE
  8
0
  6
CONTINUOUS
 62
     7
 10
-107.445
 20
207.28
 11
-107.445
 21
187.28
  0
LINE
  8
0
  6
CONTINUOUS
 62
     7
 10
-127.445
 20
207.28
 11
-127.445
 21
187.28
  0
LINE
  8
0
  6
CONTINUOUS
 62
     7
 10
-124.445
 20
207.28
 11
-124.445
 21
187.28
  0
LINE
  8
0
  6
CONTINUOUS
 62
     7
 10
-110.445
 20
207.28
 11
-110.445
 21
187.28
  0
LINE
  8
0
  6
CONTINUOUS
 62
     7
 10
-57.8409
 20
116.43
 11
-37.8409
 21
116.43
  0
LINE
  8
0
  6
CONTINUOUS
 62
     7
 10
-57.8409
 20
125.43
 11
-37.8409
 21
125.43
  0
LINE
  8
0
  6
CONTINUOUS
 62
     7
 10
-57.8409
 20
141.42999
 11
-37.8409
 21
141.42999
  0
LINE
  8
0
  6
CENTER
 62
     7
 10
-60.8409
 20
131.92999
 11
-34.8409
 21
131.92999
  0
LINE
  8
0
  6
CONTINUOUS
 62
     7
 10
-57.8409
 20
141.42999
 11
-57.8409
 21
116.43
  0
LINE
  8
0
  6
CONTINUOUS
 62
     7
 10
-37.8409
 20
141.42999
 11
-37.8409
 21
116.43
  0
LINE
  8
0
  6
CENTER
 62
     7
 10
-47.8409
 20
128.42999
 11
-47.8409
 21
113.43
  0
LINE
  8
0
  6
CONTINUOUS
 62
     7
 10
-57.8409
 20
138.42999
 11
-37.8409
 21
138.42999
  0
LINE
  8
0
  6
CONTINUOUS
 62
     7
 10
-177
 20
-0.19999981
 11
0
 21
-0.19999981
  0
LINE
  8
0
  6
CONTINUOUS
 62
     7
 10
-177
 20
274.29999
 11
-177
 21
-0.19999981
  0
LINE
  8
0
  6
CONTINUOUS
 62
     7
 10
-177
 20
-0.39999962
 11
-1.6000032
 21
-0.39999962
  0
LINE
  8
0
  6
CONTINUOUS
 62
     7
 10
-177.2
 20
274.29999
 11
-177.2
 21
-0.19999981
  0
LINE
  8
0
  6
CONTINUOUS
 62
     7
 10
0
 20
274.29999
 11
0
 21
0
  0
LINE
  8
0
  6
CONTINUOUS
 62
     7
 10
-0.20000005
 20
274.29999
 11
-0.20000005
 21
0
  0
LINE
  8
0
  6
CONTINUOUS
 62
     7
 10
-177
 20
274.29999
 11
0
 21
274.29999
  0
LINE
  8
0
  6
CONTINUOUS
 62
     7
 10
-177
 20
274.5
 11
0
 21
274.5
  0
LINE
  8
0
  6
CONTINUOUS
 62
     7
 10
-61.799999
 20
38.299999
 11
-61.799999
 21
0
  0
LINE
  8
0
  6
CONTINUOUS
 62
     7
 10
-61.799999
 20
12.3
 11
0
 21
12.3
  0
LINE
  8
0
  6
CONTINUOUS
 62
     7
 10
-61.799999
 20
24.799999
 11
0
 21
24.799999
  0
LINE
  8
0
  6
CONTINUOUS
 62
     7
 10
-61.799999
 20
38.299999
 11
0
 21
38.299999
  0
CIRCLE
  8
0
  6
CONTINUOUS
 62
     7
 10
-117.445
 20
131.92999
 40
5
  0
CIRCLE
  8
0
  6
CONTINUOUS
 62
     7
 10
-117.445
 20
131.92999
 40
4
  0
CIRCLE
  8
0
  6
CONTINUOUS
 62
     7
 10
-98.445
 20
197.28
 40
2
  0
CIRCLE
  8
0
  6
CONTINUOUS
 62
     7
 10
-136.44501
 20
197.28
 40
2
  0
CIRCLE
  8
0
  6
CONTINUOUS
 62
     7
 10
-136.44501
 20
197.28
 40
1.5
  0
CIRCLE
  8
0
  6
CONTINUOUS
 62
     7
 10
-98.445
 20
197.28
 40
1.5
  0
TEXT
  8
0
  6
CONTINUOUS
 62
     7
 10
-53.084036
 20
31.377573
 40
4.8000002
 41
0.84496196
  1
ミニシリンダー軸受
  0
TEXT
  8
0
  6
CONTINUOUS
 62
     7
 10
-45.601695
 20
15.989925
 40
4.8000002
 41
0.84741096
  1
ＣＰ－００８
  0
TEXT
  8
0
  6
CONTINUOUS
 62
     7
 10
-44.895841
 20
3.4256988
 40
4.8000002
 41
0.84741096
  1
３７０７１２
  0
TEXT
  8
0
  6
CONTINUOUS
 62
     7
 10
-41.594881
 20
26.53073
 40
3.2
 41
0.84741093
  1
（２０ｍｍ）
  0
INSERT
  8
0
  6
CONTINUOUS
 62
     7
  2
KOZU0001
 10
-97.577682
 20
199.08215
  0
INSERT
  8
0
  6
CONTINUOUS
 62
     7
  2
KOZU0002
 10
-115.01005
 20
136.29703
  0
ENDSEC
  0
EOF
