  0
SECTION
  2
HEADER
  9
$EXTMAX
 10
1.2182922
 20
274.528
 30
0
  9
$EXTMIN
 10
-177.2301
 20
-1.0560455
 30
0
  9
$LIMMAX
 10
1.2182922
 20
274.528
  9
$LIMMIN
 10
-177.2301
 20
-1.0560455
  9
$PLIMMAX
 10
1.2182922
 20
274.528
  9
$PLIMMIN
 10
-177.2301
 20
-1.0560455
  9
$PEXTMAX
 10
1.2182922
 20
274.528
 30
0
  9
$PEXTMIN
 10
-177.2301
 20
-1.0560455
 30
0
  9
$TEXTSIZE
 40
3.2
  9
$DIMSHO
 70
     0
  9
$DIMASZ
 40
1.0
  9
$DIMTAD
 70
     1
  9
$DIMTIH
 70
     0
  9
$DIMTOH
 70
     0
  9
$DIMEXE
 40
2.54
  9
$DIMEXO
 40
2.54
  9
$DIMTVP
 40
1.0
  9
$DIMSAH
 70
     1
  9
$DIMDLE
 40
0.0
  9
$DIMTXT
 40
3.2
  9
$DIMGAP
 40
1.6
  0
ENDSEC
  0
SECTION
  2
TABLES
  0
TABLE
  2
LTYPE
 70
     39
  0
LTYPE
  2
CONTINUOUS
 70
    64
  3
Solid line
 72
    65
 73
     0
 40
0.0
  0
LTYPE
  2
ACAD_ISO02W100
 70
     0
  3
ISO dash __ __ __ __ __ __ __ __ __ __ __ __ __
 72
    65
 73
     2
 40
15.0
 49
12.0
 49
-3.0
  0
LTYPE
  2
ACAD_ISO03W100
 70
     0
  3
ISO dash space __    __    __    __    __    __
 72
    65
 73
     2
 40
30.0
 49
12.0
 49
-18.0
  0
LTYPE
  2
ACAD_ISO04W100
 70
     0
  3
ISO long-dash dot ____ . ____ . ____ . ____ . _
 72
    65
 73
     4
 40
30.0
 49
24.0
 49
-3.0
 49
0.0
 49
-3.0
  0
LTYPE
  2
ACAD_ISO05W100
 70
     0
  3
ISO long-dash double-dot ____ .. ____ .. ____ .
 72
    65
 73
     6
 40
33.0
 49
24.0
 49
-3.0
 49
0.0
 49
-3.0
 49
0.0
 49
-3.0
  0
LTYPE
  2
ACAD_ISO06W100
 70
     0
  3
ISO long-dash triple-dot ____ ... ____ ... ____
 72
    65
 73
     8
 40
36.0
 49
24.0
 49
-3.0
 49
0.0
 49
-3.0
 49
0.0
 49
-3.0
 49
0.0
 49
-3.0
  0
LTYPE
  2
ACAD_ISO07W100
 70
     0
  3
ISO dot . . . . . . . . . . . . . . . . . . . .
 72
    65
 73
     2
 40
3.0
 49
0.0
 49
-3.0
  0
LTYPE
  2
ACAD_ISO08W100
 70
     0
  3
ISO long-dash short-dash ____ __ ____ __ ____ _
 72
    65
 73
     4
 40
36.0
 49
24.0
 49
-3.0
 49
6.0
 49
-3.0
  0
LTYPE
  2
ACAD_ISO09W100
 70
     0
  3
ISO long-dash double-short-dash ____ __ __ ____
 72
    65
 73
     6
 40
45.0
 49
24.0
 49
-3.0
 49
6.0
 49
-3.0
 49
6.0
 49
-3.0
  0
LTYPE
  2
ACAD_ISO10W100
 70
     0
  3
ISO dash dot __ . __ . __ . __ . __ . __ . __ .
 72
    65
 73
     4
 40
18.0
 49
12.0
 49
-3.0
 49
0.0
 49
-3.0
  0
LTYPE
  2
ACAD_ISO11W100
 70
     0
  3
ISO double-dash dot __ __ . __ __ . __ __ . __ 
 72
    65
 73
     6
 40
33.0
 49
12.0
 49
-3.0
 49
12.0
 49
-3.0
 49
0.0
 49
-3.0
  0
LTYPE
  2
ACAD_ISO12W100
 70
     0
  3
ISO dash double-dot __ . . __ . . __ . . __ . .
 72
    65
 73
     6
 40
21.0
 49
12.0
 49
-3.0
 49
0.0
 49
-3.0
 49
0.0
 49
-3.0
  0
LTYPE
  2
ACAD_ISO13W100
 70
     0
  3
ISO double-dash double-dot __ __ . . __ __ . . 
 72
    65
 73
     8
 40
36.0
 49
12.0
 49
-3.0
 49
12.0
 49
-3.0
 49
0.0
 49
-3.0
 49
0.0
 49
-3.0
  0
LTYPE
  2
ACAD_ISO14W100
 70
     0
  3
ISO dash triple-dot __ . . . __ . . . __ . . . 
 72
    65
 73
     8
 40
24.0
 49
12.0
 49
-3.0
 49
0.0
 49
-3.0
 49
0.0
 49
-3.0
 49
0.0
 49
-3.0
  0
LTYPE
  2
ACAD_ISO15W100
 70
     0
  3
ISO double-dash triple-dot __ __ . . . __ __ . 
 72
    65
 73
    10
 40
39.0
 49
12.0
 49
-3.0
 49
12.0
 49
-3.0
 49
0.0
 49
-3.0
 49
0.0
 49
-3.0
 49
0.0
 49
-3.0
  0
LTYPE
  2
BORDER
 70
    64
  3
Border __ __ . __ __ . __ __ . __ __ . __ __ .
 72
    65
 73
     6
 40
3.5
 49
1.0
 49
-0.5
 49
1.0
 49
-0.5
 49
0.0
 49
-0.5
  0
LTYPE
  2
BORDER2
 70
    64
  3
Border (.5x) __.__.__.__.__.__.__.__.__.__.__.
 72
    65
 73
     6
 40
1.75
 49
0.5
 49
-0.25
 49
0.5
 49
-0.25
 49
0.0
 49
-0.25
  0
LTYPE
  2
BORDERX2
 70
    64
  3
Border (2x) ____  ____  .  ____  ____  .  ___
 72
    65
 73
     6
 40
7.0
 49
2.0
 49
-1.0
 49
2.0
 49
-1.0
 49
0.0
 49
-1.0
  0
LTYPE
  2
CENTER
 70
    64
  3
Center ____ _ ____ _ ____ _ ____ _ ____ _ ____
 72
    65
 73
     4
 40
12.0
 49
7.5
 49
-1.5
 49
1.5
 49
-1.5
  0
LTYPE
  2
CENTER2
 70
    64
  3
Center (.5x) ___ _ ___ _ ___ _ ___ _ ___ _ ___
 72
    65
 73
     4
 40
6.0
 49
3.75
 49
-0.75
 49
0.75
 49
-0.75
  0
LTYPE
  2
CENTERX2
 70
    64
  3
Center (2x) ________  __  ________  __  _____
 72
    65
 73
     4
 40
24.0
 49
15.0
 49
-3.0
 49
3.0
 49
-3.0
  0
LTYPE
  2
DASHDOT
 70
    64
  3
Dash dot __ . __ . __ . __ . __ . __ . __ . __
 72
    65
 73
     4
 40
6.0
 49
3.0
 49
-1.5
 49
0.0
 49
-1.5
  0
LTYPE
  2
DASHDOT2
 70
    64
  3
Dash dot (.5x) _._._._._._._._._._._._._._._.
 72
    65
 73
     4
 40
3.0
 49
1.5
 49
-0.75
 49
0.0
 49
-0.75
  0
LTYPE
  2
DASHDOTX2
 70
    64
  3
Dash dot (2x) ____  .  ____  .  ____  .  ___
 72
    65
 73
     4
 40
12.0
 49
6.0
 49
-3.0
 49
0.0
 49
-3.0
  0
LTYPE
  2
DASHED
 70
    64
  3
Dashed __ __ __ __ __ __ __ __ __ __ __ __ __ _
 72
    65
 73
     2
 40
4.5
 49
3.0
 49
-1.5
  0
LTYPE
  2
DASHED2
 70
    64
  3
Dashed (.5x) _ _ _ _ _ _ _ _ _ _ _ _ _ _ _ _ _
 72
    65
 73
     2
 40
2.25
 49
1.5
 49
-0.75
  0
LTYPE
  2
DASHEDX2
 70
    64
  3
Dashed (2x) ____  ____  ____  ____  ____  ___
 72
    65
 73
     2
 40
9.0
 49
6.0
 49
-3.0
  0
LTYPE
  2
DIVIDE
 70
    64
  3
Divide ____ . . ____ . . ____ . . ____ . . ____
 72
    65
 73
     6
 40
7.5
 49
3.0
 49
-1.5
 49
0.0
 49
-1.5
 49
0.0
 49
-1.5
  0
LTYPE
  2
DIVIDE2
 70
    64
  3
Divide (.5x) __..__..__..__..__..__..__..__.._
 72
    65
 73
     6
 40
3.75
 49
1.5
 49
-0.75
 49
0.0
 49
-0.75
 49
0.0
 49
-0.75
  0
LTYPE
  2
DIVIDEX2
 70
    64
  3
Divide (2x) ________  .  .  ________  .  .  _
 72
    65
 73
     6
 40
15.0
 49
6.0
 49
-3.0
 49
0.0
 49
-3.0
 49
0.0
 49
-3.0
  0
LTYPE
  2
DOT
 70
    64
  3
Dot . . . . . . . . . . . . . . . . . . . . . .
 72
    65
 73
     2
 40
1.5
 49
0.0
 49
-1.5
  0
LTYPE
  2
DOT2
 70
    64
  3
Dot (.5x) .....................................
 72
    65
 73
     2
 40
0.75
 49
0.0
 49
-0.75
  0
LTYPE
  2
DOTX2
 70
    64
  3
Dot (2x) .  .  .  .  .  .  .  .  .  .  .  .  . 
 72
    65
 73
     2
 40
3.0
 49
0.0
 49
-3.0
  0
LTYPE
  2
HIDDEN
 70
    64
  3
Hidden __ __ __ __ __ __ __ __ __ __ __ __ __ _
 72
    65
 73
     2
 40
4.5
 49
3.0
 49
-1.5
  0
LTYPE
  2
HIDDEN2
 70
    64
  3
Hidden (.5x) _ _ _ _ _ _ _ _ _ _ _ _ _ _ _ _ _
 72
    65
 73
     2
 40
2.25
 49
1.5
 49
-0.75
  0
LTYPE
  2
HIDDENX2
 70
    64
  3
Hidden (2x) ____ ____ ____ ____ ____ ____ ____
 72
    65
 73
     2
 40
9.0
 49
6.0
 49
-3.0
  0
LTYPE
  2
PHANTOM
 70
    64
  3
Phantom ______  __  __  ______  __  __  ______
 72
    65
 73
     6
 40
15.0
 49
7.5
 49
-1.5
 49
1.5
 49
-1.5
 49
1.5
 49
-1.5
  0
LTYPE
  2
PHANTOM2
 70
    64
  3
Phantom (.5x) ___ _ _ ___ _ _ ___ _ _ ___ _ _
 72
    65
 73
     6
 40
7.5
 49
3.75
 49
-0.75
 49
0.75
 49
-0.75
 49
0.75
 49
-0.75
  0
LTYPE
  2
PHANTOMX2
 70
    64
  3
Phantom (2x) ____________    ____    ____   _
 72
    65
 73
     6
 40
30.0
 49
15.0
 49
-3.0
 49
3.0
 49
-3.0
 49
3.0
 49
-3.0
  0
ENDTAB
  0
TABLE
  2
LAYER
 70
     1
  0
LAYER
  2
0
 70
     0
 62
     7
  6
CONTINUOUS
  0
ENDTAB
  0
TABLE
  2
STYLE
 70
     1
  0
STYLE
  2
STANDARD
 70
     0
 40
0.0
 41
1.0
 50
0.0
 71
     0
 42
0.2
  3
txt
  4
BIGFONT
  0
ENDTAB
  0
TABLE
  2
DIMSTYLE
 70
     0
  0
ENDTAB
  0
ENDSEC
  0
SECTION
  2
BLOCKS
  0
BLOCK
  8
0
  2
KOZU0001
 70
    64
 10
0
 20
0
  0
LINE
  8
0
  6
CONTINUOUS
 62
     7
 10
0
 20
0
 11
12.55147
 21
22.297333
  0
LINE
  8
0
  6
CONTINUOUS
 62
     7
 10
0
 20
0
 11
0.60018336
 21
3.1047995
  0
LINE
  8
0
  6
CONTINUOUS
 62
     7
 10
0
 20
0
 11
2.3430264
 21
2.1237295
  0
TEXT
  8
0
  6
CONTINUOUS
 62
     7
 10
16.87688
 20
23.097334
 40
3.2
 41
0.84741101
  1
４－%%C４．２
  0
TEXT
  8
0
  6
CONTINUOUS
 62
     7
 10
16.87688
 20
17.481334
 40
3.2
 41
0.84556539
  1
%%C９皿モミ９０%%D
  0
LINE
  8
0
  6
CONTINUOUS
 62
     7
 10
0
 20
0
 11
12.55147
 21
22.297333
  0
LINE
  8
0
  6
CONTINUOUS
 62
     7
 10
12.551472
 20
22.297334
 11
43.390877
 21
22.297334
  0
ENDBLK
  8
0
  0
BLOCK
  8
0
  2
KOZU0002
 70
    64
 10
0
 20
0
  0
LINE
  8
0
  6
CONTINUOUS
 62
     7
 10
0
 20
0
 11
15.34632
 21
-26.325631
  0
LINE
  8
0
  6
CONTINUOUS
 62
     7
 10
0
 20
0
 11
2.3747825
 21
-2.088159
  0
LINE
  8
0
  6
CONTINUOUS
 62
     7
 10
0
 20
0
 11
0.64693058
 21
-3.0953967
  0
TEXT
  8
0
  6
CONTINUOUS
 62
     7
 10
21.377421
 20
-25.525629
 40
3.2
 41
0.84741101
  1
４－%%C６．５
  0
LINE
  8
0
  6
CONTINUOUS
 62
     7
 10
0
 20
0
 11
15.34632
 21
-26.325631
  0
LINE
  8
0
  6
CONTINUOUS
 62
     7
 10
15.346317
 20
-26.325629
 11
41.491421
 21
-26.325629
  0
ENDBLK
  8
0
  0
ENDSEC
  0
SECTION
  2
ENTITIES
  0
LINE
  8
0
  6
CONTINUOUS
 62
     7
 10
-151.9075
 20
80.682022
 11
-51.907509
 21
80.682022
  0
LINE
  8
0
  6
CONTINUOUS
 62
     7
 10
-151.9075
 20
86.682022
 11
-51.907509
 21
86.682022
  0
LINE
  8
0
  6
CONTINUOUS
 62
     7
 10
-151.9075
 20
86.682022
 11
-151.9075
 21
80.682022
  0
LINE
  8
0
  6
CONTINUOUS
 62
     7
 10
-51.907509
 20
86.682022
 11
-51.907509
 21
80.682022
  0
LINE
  8
0
  6
CENTER
 62
     7
 10
-61.907509
 20
89.682022
 11
-61.907509
 21
77.682022
  0
LINE
  8
0
  6
CENTER
 62
     7
 10
-76.907509
 20
89.682022
 11
-76.907509
 21
77.682022
  0
LINE
  8
0
  6
CENTER
 62
     7
 10
-86.907509
 20
89.682022
 11
-86.907509
 21
77.682022
  0
LINE
  8
0
  6
CENTER
 62
     7
 10
-101.9075
 20
89.682022
 11
-101.9075
 21
77.682022
  0
LINE
  8
0
  6
CENTER
 62
     7
 10
-116.9075
 20
89.682022
 11
-116.9075
 21
77.682022
  0
LINE
  8
0
  6
CENTER
 62
     7
 10
-126.9075
 20
89.682022
 11
-126.9075
 21
77.682022
  0
LINE
  8
0
  6
CENTER
 62
     7
 10
-141.9075
 20
89.682022
 11
-141.9075
 21
77.682022
  0
LINE
  8
0
  6
DASHED
 62
     7
 10
-123.6575
 20
86.682022
 11
-123.6575
 21
80.682022
  0
LINE
  8
0
  6
DASHED
 62
     7
 10
-130.1575
 20
86.682022
 11
-130.1575
 21
80.682022
  0
LINE
  8
0
  6
DASHED
 62
     7
 10
-59.80751
 20
84.282021
 11
-59.80751
 21
80.682022
  0
LINE
  8
0
  6
DASHED
 62
     7
 10
-84.80751
 20
84.282021
 11
-84.80751
 21
80.682022
  0
LINE
  8
0
  6
DASHED
 62
     7
 10
-57.407508
 20
86.682018
 11
-59.807507
 21
84.282019
  0
LINE
  8
0
  6
DASHED
 62
     7
 10
-82.407504
 20
86.682016
 11
-84.807504
 21
84.282016
  0
LINE
  8
0
  6
DASHED
 62
     7
 10
-89.007507
 20
84.282021
 11
-89.007507
 21
80.682022
  0
LINE
  8
0
  6
DASHED
 62
     7
 10
-91.407509
 20
86.682021
 11
-89.007504
 21
84.282016
  0
LINE
  8
0
  6
DASHED
 62
     7
 10
-64.007507
 20
84.282021
 11
-64.007507
 21
80.682022
  0
LINE
  8
0
  6
DASHED
 62
     7
 10
-66.407506
 20
86.682018
 11
-64.007507
 21
84.282019
  0
LINE
  8
0
  6
DASHED
 62
     7
 10
-89.007507
 20
84.282021
 11
-84.80751
 21
84.282021
  0
LINE
  8
0
  6
DASHED
 62
     7
 10
-64.007507
 20
84.282021
 11
-59.80751
 21
84.282021
  0
LINE
  8
0
  6
CONTINUOUS
 62
     7
 10
-151.9075
 20
200.68202
 11
-151.9075
 21
130.68202
  0
LINE
  8
0
  6
CONTINUOUS
 62
     7
 10
-51.907509
 20
200.68202
 11
-51.907509
 21
130.68202
  0
LINE
  8
0
  6
CONTINUOUS
 62
     7
 10
-151.9075
 20
130.68202
 11
-51.907509
 21
130.68202
  0
LINE
  8
0
  6
CONTINUOUS
 62
     7
 10
-151.9075
 20
200.68202
 11
-51.907509
 21
200.68202
  0
LINE
  8
0
  6
CENTER
 62
     7
 10
-101.9075
 20
209.7309
 11
-101.9075
 21
122.99679
  0
LINE
  8
0
  6
CENTER
 62
     7
 10
-126.9075
 20
151.47203
 11
-126.9075
 21
139.89201
  0
LINE
  8
0
  6
CENTER
 62
     7
 10
-132.69751
 20
145.68202
 11
-121.11751
 21
145.68202
  0
LINE
  8
0
  6
CENTER
 62
     7
 10
-126.9075
 20
171.47203
 11
-126.9075
 21
159.89201
  0
LINE
  8
0
  6
CENTER
 62
     7
 10
-132.69751
 20
165.68202
 11
-121.11751
 21
165.68202
  0
LINE
  8
0
  6
CENTER
 62
     7
 10
-116.9075
 20
197.92203
 11
-116.9075
 21
183.44202
  0
LINE
  8
0
  6
CENTER
 62
     7
 10
-124.14751
 20
190.68202
 11
-109.66751
 21
190.68202
  0
LINE
  8
0
  6
CENTER
 62
     7
 10
-141.9075
 20
197.92203
 11
-141.9075
 21
183.44202
  0
LINE
  8
0
  6
CENTER
 62
     7
 10
-149.14749
 20
190.68202
 11
-134.66751
 21
190.68202
  0
LINE
  8
0
  6
CENTER
 62
     7
 10
-76.907509
 20
151.47203
 11
-76.907509
 21
139.89201
  0
LINE
  8
0
  6
CENTER
 62
     7
 10
-71.117508
 20
145.68202
 11
-82.69751
 21
145.68202
  0
LINE
  8
0
  6
CENTER
 62
     7
 10
-76.907509
 20
171.47203
 11
-76.907509
 21
159.89201
  0
LINE
  8
0
  6
CENTER
 62
     7
 10
-71.117508
 20
165.68202
 11
-82.69751
 21
165.68202
  0
LINE
  8
0
  6
CENTER
 62
     7
 10
-86.907509
 20
197.92203
 11
-86.907509
 21
183.44202
  0
LINE
  8
0
  6
CENTER
 62
     7
 10
-79.667503
 20
190.68202
 11
-94.147514
 21
190.68202
  0
LINE
  8
0
  6
CENTER
 62
     7
 10
-61.907509
 20
197.92203
 11
-61.907509
 21
183.44202
  0
LINE
  8
0
  6
CENTER
 62
     7
 10
-54.667511
 20
190.68202
 11
-69.147514
 21
190.68202
  0
LINE
  8
0
  6
CONTINUOUS
 62
     7
 10
-21.948078
 20
200.68202
 11
-21.948078
 21
130.68202
  0
LINE
  8
0
  6
CONTINUOUS
 62
     7
 10
-15.948077
 20
200.68202
 11
-15.948077
 21
130.68202
  0
LINE
  8
0
  6
CONTINUOUS
 62
     7
 10
-21.948078
 20
200.68202
 11
-15.948077
 21
200.68202
  0
LINE
  8
0
  6
CONTINUOUS
 62
     7
 10
-21.948078
 20
130.68202
 11
-15.948077
 21
130.68202
  0
LINE
  8
0
  6
CENTER
 62
     7
 10
-23.948078
 20
190.68202
 11
-13.948077
 21
190.68202
  0
LINE
  8
0
  6
CENTER
 62
     7
 10
-23.948078
 20
165.68202
 11
-13.948077
 21
165.68202
  0
LINE
  8
0
  6
CENTER
 62
     7
 10
-23.948078
 20
140.68202
 11
-13.948077
 21
140.68202
  0
LINE
  8
0
  6
DASHED
 62
     7
 10
-19.548075
 20
188.58202
 11
-15.948077
 21
188.58202
  0
LINE
  8
0
  6
DASHED
 62
     7
 10
-19.548075
 20
192.78203
 11
-15.948077
 21
192.78203
  0
LINE
  8
0
  6
DASHED
 62
     7
 10
-21.948078
 20
168.93202
 11
-15.948077
 21
168.93202
  0
LINE
  8
0
  6
DASHED
 62
     7
 10
-21.948078
 20
162.43202
 11
-15.948077
 21
162.43202
  0
LINE
  8
0
  6
DASHED
 62
     7
 10
-21.948078
 20
143.93202
 11
-15.948077
 21
143.93202
  0
LINE
  8
0
  6
DASHED
 62
     7
 10
-21.948078
 20
137.43202
 11
-15.948077
 21
137.43202
  0
LINE
  8
0
  6
DASHED
 62
     7
 10
-21.948075
 20
195.18202
 11
-19.548079
 21
192.78203
  0
LINE
  8
0
  6
DASHED
 62
     7
 10
-21.948079
 20
186.18202
 11
-19.54808
 21
188.58202
  0
LINE
  8
0
  6
DASHED
 62
     7
 10
-19.548075
 20
188.58202
 11
-19.548075
 21
192.78203
  0
LINE
  8
0
  6
CONTINUOUS
 62
     7
 10
-61.800003
 20
38.5
 11
0
 21
38.5
  0
LINE
  8
0
  6
CONTINUOUS
 62
     7
 10
-61.800003
 20
12.5
 11
0
 21
12.5
  0
LINE
  8
0
  6
CONTINUOUS
 62
     7
 10
-61.800003
 20
25
 11
0
 21
25
  0
LINE
  8
0
  6
CONTINUOUS
 62
     7
 10
-61.800003
 20
38.5
 11
-61.800003
 21
0
  0
LINE
  8
0
  6
CONTINUOUS
 62
     7
 10
-177
 20
-0.19999981
 11
0
 21
-0.19999981
  0
LINE
  8
0
  6
CONTINUOUS
 62
     7
 10
-177
 20
274.29999
 11
-177
 21
-0.19999981
  0
LINE
  8
0
  6
CONTINUOUS
 62
     7
 10
-177
 20
-0.39999962
 11
-1.6000032
 21
-0.39999962
  0
LINE
  8
0
  6
CONTINUOUS
 62
     7
 10
0
 20
274.29999
 11
0
 21
0
  0
LINE
  8
0
  6
CONTINUOUS
 62
     7
 10
-0.20000005
 20
274.29999
 11
-0.20000005
 21
0
  0
LINE
  8
0
  6
CONTINUOUS
 62
     7
 10
-177
 20
274.29999
 11
0
 21
274.29999
  0
LINE
  8
0
  6
CONTINUOUS
 62
     7
 10
-177
 20
274.5
 11
0
 21
274.5
  0
LINE
  8
0
  6
CONTINUOUS
 62
     7
 10
-177.2
 20
274.29999
 11
-177.2
 21
-0.19999981
  0
CIRCLE
  8
0
  6
CONTINUOUS
 62
     7
 10
-126.9075
 20
145.68202
 40
3.25
  0
CIRCLE
  8
0
  6
CONTINUOUS
 62
     7
 10
-126.9075
 20
165.68202
 40
3.25
  0
CIRCLE
  8
0
  6
CONTINUOUS
 62
     7
 10
-141.9075
 20
190.68202
 40
2.0999999
  0
CIRCLE
  8
0
  6
CONTINUOUS
 62
     7
 10
-116.9075
 20
190.68202
 40
2.0999999
  0
CIRCLE
  8
0
  6
CONTINUOUS
 62
     7
 10
-76.907509
 20
145.68202
 40
3.25
  0
CIRCLE
  8
0
  6
CONTINUOUS
 62
     7
 10
-76.907509
 20
165.68202
 40
3.25
  0
CIRCLE
  8
0
  6
CONTINUOUS
 62
     7
 10
-61.907509
 20
190.68202
 40
2.0999999
  0
CIRCLE
  8
0
  6
CONTINUOUS
 62
     7
 10
-86.907509
 20
190.68202
 40
2.0999999
  0
CIRCLE
  8
0
  6
CONTINUOUS
 62
     7
 10
-141.9075
 20
190.68202
 40
4.5
  0
CIRCLE
  8
0
  6
CONTINUOUS
 62
     7
 10
-116.9075
 20
190.68202
 40
4.5
  0
CIRCLE
  8
0
  6
CONTINUOUS
 62
     7
 10
-86.907509
 20
190.68202
 40
4.5
  0
CIRCLE
  8
0
  6
CONTINUOUS
 62
     7
 10
-61.907509
 20
190.68202
 40
4.5
  0
TEXT
  8
0
  6
CONTINUOUS
 62
     7
 10
-52.305458
 20
16.125
 40
5.25
 41
1.13848
  1
FCK-1001
  0
TEXT
  8
0
  6
CONTINUOUS
 62
     7
 10
-47.055472
 20
3.5250001
 40
5.25
 41
1.03934
  1
370732
  0
TEXT
  8
0
  6
CONTINUOUS
 62
     7
 10
-41.170808
 20
33.846194
 40
3.2
 41
0.84741093
  1
自在チャック
  0
TEXT
  8
0
  6
CONTINUOUS
 62
     7
 10
-58.585715
 20
26.428775
 40
4.8000002
 41
0.77071509
  1
チャック取付ベース（ミニ）
  0
INSERT
  8
0
  6
CONTINUOUS
 62
     7
  2
KOZU0001
 10
-84.7001
 20
194.60342
  0
INSERT
  8
0
  6
CONTINUOUS
 62
     7
  2
KOZU0002
 10
-75.270744
 20
142.87426
  0
ENDSEC
  0
EOF
