  0
SECTION
  2
HEADER
  9
$EXTMAX
 10
1.2182922
 20
274.528
 30
0
  9
$EXTMIN
 10
-177.2301
 20
-1.0560455
 30
0
  9
$LIMMAX
 10
1.2182922
 20
274.528
  9
$LIMMIN
 10
-177.2301
 20
-1.0560455
  9
$PLIMMAX
 10
1.2182922
 20
274.528
  9
$PLIMMIN
 10
-177.2301
 20
-1.0560455
  9
$PEXTMAX
 10
1.2182922
 20
274.528
 30
0
  9
$PEXTMIN
 10
-177.2301
 20
-1.0560455
 30
0
  9
$TEXTSIZE
 40
3.2
  9
$DIMSHO
 70
     0
  9
$DIMASZ
 40
1.0
  9
$DIMTAD
 70
     1
  9
$DIMTIH
 70
     0
  9
$DIMTOH
 70
     0
  9
$DIMEXE
 40
2.54
  9
$DIMEXO
 40
2.54
  9
$DIMTVP
 40
1.0
  9
$DIMSAH
 70
     1
  9
$DIMDLE
 40
0.0
  9
$DIMTXT
 40
3.2
  9
$DIMGAP
 40
1.6
  0
ENDSEC
  0
SECTION
  2
TABLES
  0
TABLE
  2
LTYPE
 70
     39
  0
LTYPE
  2
CONTINUOUS
 70
    64
  3
Solid line
 72
    65
 73
     0
 40
0.0
  0
LTYPE
  2
ACAD_ISO02W100
 70
     0
  3
ISO dash __ __ __ __ __ __ __ __ __ __ __ __ __
 72
    65
 73
     2
 40
15.0
 49
12.0
 49
-3.0
  0
LTYPE
  2
ACAD_ISO03W100
 70
     0
  3
ISO dash space __    __    __    __    __    __
 72
    65
 73
     2
 40
30.0
 49
12.0
 49
-18.0
  0
LTYPE
  2
ACAD_ISO04W100
 70
     0
  3
ISO long-dash dot ____ . ____ . ____ . ____ . _
 72
    65
 73
     4
 40
30.0
 49
24.0
 49
-3.0
 49
0.0
 49
-3.0
  0
LTYPE
  2
ACAD_ISO05W100
 70
     0
  3
ISO long-dash double-dot ____ .. ____ .. ____ .
 72
    65
 73
     6
 40
33.0
 49
24.0
 49
-3.0
 49
0.0
 49
-3.0
 49
0.0
 49
-3.0
  0
LTYPE
  2
ACAD_ISO06W100
 70
     0
  3
ISO long-dash triple-dot ____ ... ____ ... ____
 72
    65
 73
     8
 40
36.0
 49
24.0
 49
-3.0
 49
0.0
 49
-3.0
 49
0.0
 49
-3.0
 49
0.0
 49
-3.0
  0
LTYPE
  2
ACAD_ISO07W100
 70
     0
  3
ISO dot . . . . . . . . . . . . . . . . . . . .
 72
    65
 73
     2
 40
3.0
 49
0.0
 49
-3.0
  0
LTYPE
  2
ACAD_ISO08W100
 70
     0
  3
ISO long-dash short-dash ____ __ ____ __ ____ _
 72
    65
 73
     4
 40
36.0
 49
24.0
 49
-3.0
 49
6.0
 49
-3.0
  0
LTYPE
  2
ACAD_ISO09W100
 70
     0
  3
ISO long-dash double-short-dash ____ __ __ ____
 72
    65
 73
     6
 40
45.0
 49
24.0
 49
-3.0
 49
6.0
 49
-3.0
 49
6.0
 49
-3.0
  0
LTYPE
  2
ACAD_ISO10W100
 70
     0
  3
ISO dash dot __ . __ . __ . __ . __ . __ . __ .
 72
    65
 73
     4
 40
18.0
 49
12.0
 49
-3.0
 49
0.0
 49
-3.0
  0
LTYPE
  2
ACAD_ISO11W100
 70
     0
  3
ISO double-dash dot __ __ . __ __ . __ __ . __ 
 72
    65
 73
     6
 40
33.0
 49
12.0
 49
-3.0
 49
12.0
 49
-3.0
 49
0.0
 49
-3.0
  0
LTYPE
  2
ACAD_ISO12W100
 70
     0
  3
ISO dash double-dot __ . . __ . . __ . . __ . .
 72
    65
 73
     6
 40
21.0
 49
12.0
 49
-3.0
 49
0.0
 49
-3.0
 49
0.0
 49
-3.0
  0
LTYPE
  2
ACAD_ISO13W100
 70
     0
  3
ISO double-dash double-dot __ __ . . __ __ . . 
 72
    65
 73
     8
 40
36.0
 49
12.0
 49
-3.0
 49
12.0
 49
-3.0
 49
0.0
 49
-3.0
 49
0.0
 49
-3.0
  0
LTYPE
  2
ACAD_ISO14W100
 70
     0
  3
ISO dash triple-dot __ . . . __ . . . __ . . . 
 72
    65
 73
     8
 40
24.0
 49
12.0
 49
-3.0
 49
0.0
 49
-3.0
 49
0.0
 49
-3.0
 49
0.0
 49
-3.0
  0
LTYPE
  2
ACAD_ISO15W100
 70
     0
  3
ISO double-dash triple-dot __ __ . . . __ __ . 
 72
    65
 73
    10
 40
39.0
 49
12.0
 49
-3.0
 49
12.0
 49
-3.0
 49
0.0
 49
-3.0
 49
0.0
 49
-3.0
 49
0.0
 49
-3.0
  0
LTYPE
  2
BORDER
 70
    64
  3
Border __ __ . __ __ . __ __ . __ __ . __ __ .
 72
    65
 73
     6
 40
3.5
 49
1.0
 49
-0.5
 49
1.0
 49
-0.5
 49
0.0
 49
-0.5
  0
LTYPE
  2
BORDER2
 70
    64
  3
Border (.5x) __.__.__.__.__.__.__.__.__.__.__.
 72
    65
 73
     6
 40
1.75
 49
0.5
 49
-0.25
 49
0.5
 49
-0.25
 49
0.0
 49
-0.25
  0
LTYPE
  2
BORDERX2
 70
    64
  3
Border (2x) ____  ____  .  ____  ____  .  ___
 72
    65
 73
     6
 40
7.0
 49
2.0
 49
-1.0
 49
2.0
 49
-1.0
 49
0.0
 49
-1.0
  0
LTYPE
  2
CENTER
 70
    64
  3
Center ____ _ ____ _ ____ _ ____ _ ____ _ ____
 72
    65
 73
     4
 40
12.0
 49
7.5
 49
-1.5
 49
1.5
 49
-1.5
  0
LTYPE
  2
CENTER2
 70
    64
  3
Center (.5x) ___ _ ___ _ ___ _ ___ _ ___ _ ___
 72
    65
 73
     4
 40
6.0
 49
3.75
 49
-0.75
 49
0.75
 49
-0.75
  0
LTYPE
  2
CENTERX2
 70
    64
  3
Center (2x) ________  __  ________  __  _____
 72
    65
 73
     4
 40
24.0
 49
15.0
 49
-3.0
 49
3.0
 49
-3.0
  0
LTYPE
  2
DASHDOT
 70
    64
  3
Dash dot __ . __ . __ . __ . __ . __ . __ . __
 72
    65
 73
     4
 40
6.0
 49
3.0
 49
-1.5
 49
0.0
 49
-1.5
  0
LTYPE
  2
DASHDOT2
 70
    64
  3
Dash dot (.5x) _._._._._._._._._._._._._._._.
 72
    65
 73
     4
 40
3.0
 49
1.5
 49
-0.75
 49
0.0
 49
-0.75
  0
LTYPE
  2
DASHDOTX2
 70
    64
  3
Dash dot (2x) ____  .  ____  .  ____  .  ___
 72
    65
 73
     4
 40
12.0
 49
6.0
 49
-3.0
 49
0.0
 49
-3.0
  0
LTYPE
  2
DASHED
 70
    64
  3
Dashed __ __ __ __ __ __ __ __ __ __ __ __ __ _
 72
    65
 73
     2
 40
4.5
 49
3.0
 49
-1.5
  0
LTYPE
  2
DASHED2
 70
    64
  3
Dashed (.5x) _ _ _ _ _ _ _ _ _ _ _ _ _ _ _ _ _
 72
    65
 73
     2
 40
2.25
 49
1.5
 49
-0.75
  0
LTYPE
  2
DASHEDX2
 70
    64
  3
Dashed (2x) ____  ____  ____  ____  ____  ___
 72
    65
 73
     2
 40
9.0
 49
6.0
 49
-3.0
  0
LTYPE
  2
DIVIDE
 70
    64
  3
Divide ____ . . ____ . . ____ . . ____ . . ____
 72
    65
 73
     6
 40
7.5
 49
3.0
 49
-1.5
 49
0.0
 49
-1.5
 49
0.0
 49
-1.5
  0
LTYPE
  2
DIVIDE2
 70
    64
  3
Divide (.5x) __..__..__..__..__..__..__..__.._
 72
    65
 73
     6
 40
3.75
 49
1.5
 49
-0.75
 49
0.0
 49
-0.75
 49
0.0
 49
-0.75
  0
LTYPE
  2
DIVIDEX2
 70
    64
  3
Divide (2x) ________  .  .  ________  .  .  _
 72
    65
 73
     6
 40
15.0
 49
6.0
 49
-3.0
 49
0.0
 49
-3.0
 49
0.0
 49
-3.0
  0
LTYPE
  2
DOT
 70
    64
  3
Dot . . . . . . . . . . . . . . . . . . . . . .
 72
    65
 73
     2
 40
1.5
 49
0.0
 49
-1.5
  0
LTYPE
  2
DOT2
 70
    64
  3
Dot (.5x) .....................................
 72
    65
 73
     2
 40
0.75
 49
0.0
 49
-0.75
  0
LTYPE
  2
DOTX2
 70
    64
  3
Dot (2x) .  .  .  .  .  .  .  .  .  .  .  .  . 
 72
    65
 73
     2
 40
3.0
 49
0.0
 49
-3.0
  0
LTYPE
  2
HIDDEN
 70
    64
  3
Hidden __ __ __ __ __ __ __ __ __ __ __ __ __ _
 72
    65
 73
     2
 40
4.5
 49
3.0
 49
-1.5
  0
LTYPE
  2
HIDDEN2
 70
    64
  3
Hidden (.5x) _ _ _ _ _ _ _ _ _ _ _ _ _ _ _ _ _
 72
    65
 73
     2
 40
2.25
 49
1.5
 49
-0.75
  0
LTYPE
  2
HIDDENX2
 70
    64
  3
Hidden (2x) ____ ____ ____ ____ ____ ____ ____
 72
    65
 73
     2
 40
9.0
 49
6.0
 49
-3.0
  0
LTYPE
  2
PHANTOM
 70
    64
  3
Phantom ______  __  __  ______  __  __  ______
 72
    65
 73
     6
 40
15.0
 49
7.5
 49
-1.5
 49
1.5
 49
-1.5
 49
1.5
 49
-1.5
  0
LTYPE
  2
PHANTOM2
 70
    64
  3
Phantom (.5x) ___ _ _ ___ _ _ ___ _ _ ___ _ _
 72
    65
 73
     6
 40
7.5
 49
3.75
 49
-0.75
 49
0.75
 49
-0.75
 49
0.75
 49
-0.75
  0
LTYPE
  2
PHANTOMX2
 70
    64
  3
Phantom (2x) ____________    ____    ____   _
 72
    65
 73
     6
 40
30.0
 49
15.0
 49
-3.0
 49
3.0
 49
-3.0
 49
3.0
 49
-3.0
  0
ENDTAB
  0
TABLE
  2
LAYER
 70
     1
  0
LAYER
  2
0
 70
     0
 62
     7
  6
CONTINUOUS
  0
ENDTAB
  0
TABLE
  2
STYLE
 70
     1
  0
STYLE
  2
STANDARD
 70
     0
 40
0.0
 41
1.0
 50
0.0
 71
     0
 42
0.2
  3
txt
  4
BIGFONT
  0
ENDTAB
  0
TABLE
  2
DIMSTYLE
 70
     0
  0
ENDTAB
  0
ENDSEC
  0
SECTION
  2
BLOCKS
  0
BLOCK
  8
0
  2
KOZU0001
 70
    64
 10
0
 20
0
  0
LINE
  8
0
  6
CONTINUOUS
 62
     7
 10
0
 20
0
 11
13.103185
 21
19.420095
  0
LINE
  8
0
  6
CONTINUOUS
 62
     7
 10
0
 20
0
 11
0.84899015
 21
3.0461805
  0
LINE
  8
0
  6
CONTINUOUS
 62
     7
 10
0
 20
0
 11
2.5069004
 21
1.9275503
  0
TEXT
  8
0
  6
CONTINUOUS
 62
     7
 10
19.085569
 20
20.2201
 40
3.2
 41
0.85127004
  1
４－Ｍ４
  0
LINE
  8
0
  6
CONTINUOUS
 62
     7
 10
0
 20
0
 11
13.103185
 21
19.420095
  0
LINE
  8
0
  6
CONTINUOUS
 62
     7
 10
13.103179
 20
19.4201
 11
32.799567
 21
19.4201
  0
ENDBLK
  8
0
  0
ENDSEC
  0
SECTION
  2
ENTITIES
  0
LINE
  8
0
  6
CONTINUOUS
 62
     7
 10
-125.40776
 20
34.592049
 11
-118.65776
 21
34.592049
  0
LINE
  8
0
  6
CONTINUOUS
 62
     7
 10
-125.40776
 20
24.592049
 11
-105.40776
 21
24.592049
  0
LINE
  8
0
  6
CONTINUOUS
 62
     7
 10
-125.40776
 20
34.592049
 11
-125.40776
 21
24.592049
  0
LINE
  8
0
  6
CONTINUOUS
 62
     7
 10
-105.40776
 20
34.592049
 11
-105.40776
 21
24.592049
  0
LINE
  8
0
  6
CENTER
 62
     7
 10
-115.40776
 20
30.610229
 11
-115.40776
 21
22.549469
  0
LINE
  8
0
  6
CONTINUOUS
 62
     7
 10
-122.90776
 20
28.592049
 11
-107.90776
 21
28.592049
  0
LINE
  8
0
  6
CONTINUOUS
 62
     7
 10
-122.90776
 20
31.592049
 11
-118.65776
 21
31.592049
  0
LINE
  8
0
  6
CONTINUOUS
 62
     7
 10
-118.65776
 20
34.592049
 11
-118.65776
 21
31.592049
  0
LINE
  8
0
  6
CONTINUOUS
 62
     7
 10
-112.15776
 20
34.592049
 11
-112.15776
 21
31.592049
  0
LINE
  8
0
  6
CONTINUOUS
 62
     7
 10
-107.90776
 20
31.592049
 11
-107.90776
 21
28.592049
  0
LINE
  8
0
  6
CONTINUOUS
 62
     7
 10
-122.90776
 20
31.592049
 11
-122.90776
 21
28.592049
  0
LINE
  8
0
  6
CONTINUOUS
 62
     7
 10
-112.15776
 20
34.592049
 11
-105.40776
 21
34.592049
  0
LINE
  8
0
  6
CONTINUOUS
 62
     7
 10
-112.15776
 20
31.592049
 11
-107.90776
 21
31.592049
  0
LINE
  8
0
  6
DASHED
 62
     7
 10
-117.40776
 20
28.592049
 11
-117.40776
 21
24.592049
  0
LINE
  8
0
  6
DASHED
 62
     7
 10
-113.40776
 20
28.592049
 11
-113.40776
 21
24.592049
  0
LINE
  8
0
  6
DASHED
 62
     7
 10
-116.90776
 20
28.592049
 11
-116.90776
 21
24.592049
  0
LINE
  8
0
  6
DASHED
 62
     7
 10
-113.90776
 20
28.592049
 11
-113.90776
 21
24.592049
  0
LINE
  8
0
  6
CONTINUOUS
 62
     7
 10
-125.40776
 20
255.33328
 11
-125.40776
 21
55.33329
  0
LINE
  8
0
  6
CONTINUOUS
 62
     7
 10
-105.40776
 20
255.33328
 11
-105.40776
 21
55.33329
  0
LINE
  8
0
  6
CONTINUOUS
 62
     7
 10
-125.40776
 20
55.33329
 11
-105.40776
 21
55.33329
  0
LINE
  8
0
  6
CONTINUOUS
 62
     7
 10
-125.40776
 20
255.33328
 11
-105.40776
 21
255.33328
  0
LINE
  8
0
  6
CENTER
 62
     7
 10
-115.40776
 20
258.33328
 11
-115.40776
 21
53.363018
  0
LINE
  8
0
  6
CONTINUOUS
 62
     7
 10
-118.65776
 20
255.33328
 11
-118.65776
 21
55.33329
  0
LINE
  8
0
  6
CONTINUOUS
 62
     7
 10
-112.15776
 20
255.33328
 11
-112.15776
 21
55.33329
  0
LINE
  8
0
  6
DASHED
 62
     7
 10
-122.90776
 20
255.33328
 11
-122.90776
 21
55.33329
  0
LINE
  8
0
  6
DASHED
 62
     7
 10
-107.90776
 20
255.33328
 11
-107.90776
 21
55.33329
  0
LINE
  8
0
  6
CENTER
 62
     7
 10
-119.54729
 20
195.33328
 11
-111.23434
 21
195.33328
  0
LINE
  8
0
  6
CENTER
 62
     7
 10
-119.54729
 20
115.33329
 11
-111.23434
 21
115.33329
  0
LINE
  8
0
  6
CENTER
 62
     7
 10
-119.54729
 20
140.33328
 11
-111.23434
 21
140.33328
  0
LINE
  8
0
  6
CENTER
 62
     7
 10
-119.54729
 20
170.33328
 11
-111.23434
 21
170.33328
  0
LINE
  8
0
  6
CONTINUOUS
 62
     7
 10
-55.407764
 20
255.33328
 11
-55.407764
 21
55.33329
  0
LINE
  8
0
  6
CONTINUOUS
 62
     7
 10
-45.407772
 20
255.33328
 11
-45.407772
 21
55.33329
  0
LINE
  8
0
  6
DASHED
 62
     7
 10
-52.407772
 20
255.33328
 11
-52.407772
 21
55.33329
  0
LINE
  8
0
  6
DASHED
 62
     7
 10
-49.407772
 20
255.33328
 11
-49.407772
 21
55.33329
  0
LINE
  8
0
  6
CONTINUOUS
 62
     7
 10
-55.407764
 20
255.33328
 11
-45.407772
 21
255.33328
  0
LINE
  8
0
  6
CONTINUOUS
 62
     7
 10
-55.407764
 20
55.33329
 11
-45.407772
 21
55.33329
  0
LINE
  8
0
  6
CENTER
 62
     7
 10
-51.407772
 20
115.33329
 11
-43.407772
 21
115.33329
  0
LINE
  8
0
  6
CENTER
 62
     7
 10
-51.407772
 20
195.33328
 11
-43.407772
 21
195.33328
  0
LINE
  8
0
  6
CENTER
 62
     7
 10
-51.407772
 20
170.33328
 11
-43.407772
 21
170.33328
  0
LINE
  8
0
  6
CENTER
 62
     7
 10
-51.407772
 20
140.33328
 11
-43.407772
 21
140.33328
  0
LINE
  8
0
  6
DASHED
 62
     7
 10
-49.407772
 20
193.33328
 11
-45.407772
 21
193.33328
  0
LINE
  8
0
  6
DASHED
 62
     7
 10
-49.407772
 20
197.33328
 11
-45.407772
 21
197.33328
  0
LINE
  8
0
  6
DASHED
 62
     7
 10
-49.407772
 20
193.83328
 11
-45.407772
 21
193.83328
  0
LINE
  8
0
  6
DASHED
 62
     7
 10
-49.407772
 20
196.83328
 11
-45.407772
 21
196.83328
  0
LINE
  8
0
  6
DASHED
 62
     7
 10
-49.407772
 20
116.83329
 11
-45.407772
 21
116.83329
  0
LINE
  8
0
  6
DASHED
 62
     7
 10
-49.407772
 20
117.33329
 11
-45.407772
 21
117.33329
  0
LINE
  8
0
  6
DASHED
 62
     7
 10
-49.407772
 20
113.33329
 11
-45.407772
 21
113.33329
  0
LINE
  8
0
  6
DASHED
 62
     7
 10
-49.407772
 20
113.83329
 11
-45.407772
 21
113.83329
  0
LINE
  8
0
  6
DASHED
 62
     7
 10
-49.407772
 20
141.83328
 11
-45.407772
 21
141.83328
  0
LINE
  8
0
  6
DASHED
 62
     7
 10
-49.407772
 20
142.33328
 11
-45.407772
 21
142.33328
  0
LINE
  8
0
  6
DASHED
 62
     7
 10
-49.407772
 20
138.33328
 11
-45.407772
 21
138.33328
  0
LINE
  8
0
  6
DASHED
 62
     7
 10
-49.407772
 20
138.83328
 11
-45.407772
 21
138.83328
  0
LINE
  8
0
  6
DASHED
 62
     7
 10
-49.407772
 20
171.83328
 11
-45.407772
 21
171.83328
  0
LINE
  8
0
  6
DASHED
 62
     7
 10
-49.407772
 20
172.33328
 11
-45.407772
 21
172.33328
  0
LINE
  8
0
  6
DASHED
 62
     7
 10
-49.407772
 20
168.33328
 11
-45.407772
 21
168.33328
  0
LINE
  8
0
  6
DASHED
 62
     7
 10
-49.407772
 20
168.83328
 11
-45.407772
 21
168.83328
  0
LINE
  8
0
  6
CONTINUOUS
 62
     7
 10
-61.800003
 20
38.5
 11
0
 21
38.5
  0
LINE
  8
0
  6
CONTINUOUS
 62
     7
 10
-61.800003
 20
12.5
 11
0
 21
12.5
  0
LINE
  8
0
  6
CONTINUOUS
 62
     7
 10
-61.800003
 20
25
 11
0
 21
25
  0
LINE
  8
0
  6
CONTINUOUS
 62
     7
 10
-61.800003
 20
38.5
 11
-61.800003
 21
0
  0
LINE
  8
0
  6
CONTINUOUS
 62
     7
 10
-177
 20
-0.19999981
 11
0
 21
-0.19999981
  0
LINE
  8
0
  6
CONTINUOUS
 62
     7
 10
-177
 20
274.29999
 11
-177
 21
-0.19999981
  0
LINE
  8
0
  6
CONTINUOUS
 62
     7
 10
-177
 20
-0.39999962
 11
-1.6000032
 21
-0.39999962
  0
LINE
  8
0
  6
CONTINUOUS
 62
     7
 10
-177.2
 20
274.29999
 11
-177.2
 21
-0.19999981
  0
LINE
  8
0
  6
CONTINUOUS
 62
     7
 10
0
 20
274.29999
 11
0
 21
0
  0
LINE
  8
0
  6
CONTINUOUS
 62
     7
 10
-0.20000005
 20
274.29999
 11
-0.20000005
 21
0
  0
LINE
  8
0
  6
CONTINUOUS
 62
     7
 10
-177
 20
274.29999
 11
0
 21
274.29999
  0
LINE
  8
0
  6
CONTINUOUS
 62
     7
 10
-177
 20
274.5
 11
0
 21
274.5
  0
LINE
  8
0
  6
CONTINUOUS
 62
     7
 10
-177.2
 20
274.29999
 11
-177.2
 21
-0.19999981
  0
CIRCLE
  8
0
  6
CONTINUOUS
 62
     7
 10
-115.40776
 20
195.33328
 40
2
  0
CIRCLE
  8
0
  6
CONTINUOUS
 62
     7
 10
-115.40776
 20
195.33328
 40
1.5
  0
CIRCLE
  8
0
  6
CONTINUOUS
 62
     7
 10
-115.40776
 20
115.33329
 40
1.5
  0
CIRCLE
  8
0
  6
CONTINUOUS
 62
     7
 10
-115.40776
 20
115.33329
 40
2
  0
CIRCLE
  8
0
  6
CONTINUOUS
 62
     7
 10
-115.40776
 20
140.33328
 40
1.5
  0
CIRCLE
  8
0
  6
CONTINUOUS
 62
     7
 10
-115.40776
 20
140.33328
 40
2
  0
CIRCLE
  8
0
  6
CONTINUOUS
 62
     7
 10
-115.40776
 20
170.33328
 40
1.5
  0
CIRCLE
  8
0
  6
CONTINUOUS
 62
     7
 10
-115.40776
 20
170.33328
 40
2
  0
TEXT
  8
0
  6
CONTINUOUS
 62
     7
 10
-52.305501
 20
16.125
 40
5.25
 41
1.10234
  1
FCK-1004
  0
TEXT
  8
0
  6
CONTINUOUS
 62
     7
 10
-47.055472
 20
3.5250001
 40
5.25
 41
1.03934
  1
370735
  0
TEXT
  8
0
  6
CONTINUOUS
 62
     7
 10
-41.995283
 20
34.067316
 40
3.2
 41
0.84741093
  1
自在チャック
  0
TEXT
  8
0
  6
CONTINUOUS
 62
     7
 10
-58.184611
 20
27.343648
 40
4.8000002
 41
0.84409461
  1
スライドベース（ミニ）
  0
INSERT
  8
0
  6
CONTINUOUS
 62
     7
  2
KOZU0001
 10
-114.28913
 20
116.9912
  0
ENDSEC
  0
EOF
